  0
SECTION
  2
HEADER
  9
$ACADVER
  1
AC1021
  9
$ACADMAINTVER
 70
    25
  9
$DWGCODEPAGE
  3
ANSI_1252
  9
$INSBASE
 10
0.0
 20
0.0
 30
0.0
  9
$EXTMIN
 10
98.7399
 20
43.652
 30
0.0
  9
$EXTMAX
 10
103.7501
 20
58.6622
 30
0.0
  9
$LIMMIN
 10
98.7399
 20
43.652
  9
$LIMMAX
 10
103.7501
 20
58.6622
  9
$ORTHOMODE
 70
     0
  9
$REGENMODE
 70
     1
  9
$FILLMODE
 70
     1
  9
$QTEXTMODE
 70
     0
  9
$MIRRTEXT
 70
     1
  9
$LTSCALE
 40
1.0
  9
$ATTMODE
 70
     1
  9
$TEXTSIZE
 40
0.2
  9
$TRACEWID
 40
0.05
  9
$TEXTSTYLE
  7
STANDARD
  9
$CLAYER
  8
Layout
  9
$CELTYPE
  6
BYLAYER
  9
$CECOLOR
 62
   256
  9
$CELTSCALE
 40
1.0
  9
$DISPSILH
 70
     0
  9
$DIMSCALE
 40
1.0
  9
$DIMASZ
 40
0.18
  9
$DIMEXO
 40
0.0625
  9
$DIMDLI
 40
0.38
  9
$DIMRND
 40
0.0
  9
$DIMDLE
 40
0.0
  9
$DIMEXE
 40
0.18
  9
$DIMTP
 40
0.0
  9
$DIMTM
 40
0.0
  9
$DIMTXT
 40
0.18
  9
$DIMCEN
 40
0.09
  9
$DIMTSZ
 40
0.0
  9
$DIMTOL
 70
     0
  9
$DIMLIM
 70
     0
  9
$DIMTIH
 70
     1
  9
$DIMTOH
 70
     1
  9
$DIMSE1
 70
     0
  9
$DIMSE2
 70
     0
  9
$DIMTAD
 70
     0
  9
$DIMZIN
 70
     0
  9
$DIMBLK
  1

  9
$DIMASO
 70
     1
  9
$DIMSHO
 70
     1
  9
$DIMPOST
  1

  9
$DIMAPOST
  1

  9
$DIMALT
 70
     0
  9
$DIMALTD
 70
     2
  9
$DIMALTF
 40
25.4
  9
$DIMLFAC
 40
1.0
  9
$DIMTOFL
 70
     0
  9
$DIMTVP
 40
0.0
  9
$DIMTIX
 70
     0
  9
$DIMSOXD
 70
     0
  9
$DIMSAH
 70
     0
  9
$DIMBLK1
  1

  9
$DIMBLK2
  1

  9
$DIMSTYLE
  2
STANDARD
  9
$DIMCLRD
 70
     0
  9
$DIMCLRE
 70
     0
  9
$DIMCLRT
 70
     0
  9
$DIMTFAC
 40
1.0
  9
$DIMGAP
 40
0.09
  9
$DIMJUST
 70
     0
  9
$DIMSD1
 70
     0
  9
$DIMSD2
 70
     0
  9
$DIMTOLJ
 70
     1
  9
$DIMTZIN
 70
     0
  9
$DIMALTZ
 70
     0
  9
$DIMALTTZ
 70
     0
  9
$DIMUPT
 70
     0
  9
$DIMDEC
 70
     4
  9
$DIMTDEC
 70
     4
  9
$DIMALTU
 70
     2
  9
$DIMALTTD
 70
     2
  9
$DIMTXSTY
  7
STANDARD
  9
$DIMAUNIT
 70
     0
  9
$DIMADEC
 70
     0
  9
$DIMALTRND
 40
0.0
  9
$DIMAZIN
 70
     0
  9
$DIMDSEP
 70
    46
  9
$DIMATFIT
 70
     3
  9
$DIMFRAC
 70
     0
  9
$DIMLDRBLK
  1

  9
$DIMLUNIT
 70
     2
  9
$DIMLWD
 70
    -2
  9
$DIMLWE
 70
    -2
  9
$DIMTMOVE
 70
     2
  9
$DIMFXL
 40
1.0
  9
$DIMFXLON
 70
     0
  9
$DIMJOGANG
 40
0.7853981633974483
  9
$DIMTFILL
 70
     0
  9
$DIMTFILLCLR
 70
     0
  9
$DIMARCSYM
 70
     0
  9
$DIMLTYPE
  6

  9
$DIMLTEX1
  6

  9
$DIMLTEX2
  6

  9
$LUNITS
 70
     2
  9
$LUPREC
 70
     4
  9
$SKETCHINC
 40
0.1
  9
$FILLETRAD
 40
0.5
  9
$AUNITS
 70
     0
  9
$AUPREC
 70
     0
  9
$MENU
  1
.
  9
$ELEVATION
 40
0.0
  9
$PELEVATION
 40
0.0
  9
$THICKNESS
 40
0.0
  9
$LIMCHECK
 70
     0
  9
$CHAMFERA
 40
0.5
  9
$CHAMFERB
 40
0.5
  9
$CHAMFERC
 40
1.0
  9
$CHAMFERD
 40
0.0
  9
$SKPOLY
 70
     0
  9
$TDCREATE
 40
2456359.658680555
  9
$TDUCREATE
 40
2456359.908680555
  9
$TDUPDATE
 40
2456359.658680555
  9
$TDUUPDATE
 40
2456359.908680555
  9
$TDINDWG
 40
0.0
  9
$TDUSRTIMER
 40
0.0
  9
$USRTIMER
 70
     1
  9
$ANGBASE
 50
0.0
  9
$ANGDIR
 70
     0
  9
$PDMODE
 70
     0
  9
$PDSIZE
 40
0.0
  9
$PLINEWID
 40
0.0
  9
$SPLFRAME
 70
     0
  9
$SPLINETYPE
 70
     6
  9
$SPLINESEGS
 70
     8
  9
$HANDSEED
  5
156
  9
$SURFTAB1
 70
     6
  9
$SURFTAB2
 70
     6
  9
$SURFTYPE
 70
     6
  9
$SURFU
 70
     6
  9
$SURFV
 70
     6
  9
$UCSBASE
  2

  9
$UCSNAME
  2

  9
$UCSORG
 10
0.0
 20
0.0
 30
0.0
  9
$UCSXDIR
 10
1.0
 20
0.0
 30
0.0
  9
$UCSYDIR
 10
0.0
 20
1.0
 30
0.0
  9
$UCSORTHOREF
  2

  9
$UCSORTHOVIEW
 70
     0
  9
$UCSORGTOP
 10
0.0
 20
0.0
 30
0.0
  9
$UCSORGBOTTOM
 10
0.0
 20
0.0
 30
0.0
  9
$UCSORGLEFT
 10
0.0
 20
0.0
 30
0.0
  9
$UCSORGRIGHT
 10
0.0
 20
0.0
 30
0.0
  9
$UCSORGFRONT
 10
0.0
 20
0.0
 30
0.0
  9
$UCSORGBACK
 10
0.0
 20
0.0
 30
0.0
  9
$PUCSBASE
  2

  9
$PUCSNAME
  2

  9
$PUCSORG
 10
0.0
 20
0.0
 30
0.0
  9
$PUCSXDIR
 10
1.0
 20
0.0
 30
0.0
  9
$PUCSYDIR
 10
0.0
 20
1.0
 30
0.0
  9
$PUCSORTHOREF
  2

  9
$PUCSORTHOVIEW
 70
     0
  9
$PUCSORGTOP
 10
0.0
 20
0.0
 30
0.0
  9
$PUCSORGBOTTOM
 10
0.0
 20
0.0
 30
0.0
  9
$PUCSORGLEFT
 10
0.0
 20
0.0
 30
0.0
  9
$PUCSORGRIGHT
 10
0.0
 20
0.0
 30
0.0
  9
$PUCSORGFRONT
 10
0.0
 20
0.0
 30
0.0
  9
$PUCSORGBACK
 10
0.0
 20
0.0
 30
0.0
  9
$USERI1
 70
     0
  9
$USERI2
 70
     0
  9
$USERI3
 70
     0
  9
$USERI4
 70
     0
  9
$USERI5
 70
     0
  9
$USERR1
 40
0.0
  9
$USERR2
 40
0.0
  9
$USERR3
 40
0.0
  9
$USERR4
 40
0.0
  9
$USERR5
 40
0.0
  9
$WORLDVIEW
 70
     1
  9
$SHADEDGE
 70
     3
  9
$SHADEDIF
 70
    70
  9
$TILEMODE
 70
     1
  9
$MAXACTVP
 70
    48
  9
$PINSBASE
 10
0.0
 20
0.0
 30
0.0
  9
$PLIMCHECK
 70
     0
  9
$PEXTMIN
 10
1.000000000000000E 20
 20
1.000000000000000E 20
 30
1.000000000000000E 20
  9
$PEXTMAX
 10
-1.000000000000000E 20
 20
-1.000000000000000E 20
 30
-1.000000000000000E 20
  9
$PLIMMIN
 10
0.0
 20
0.0
  9
$PLIMMAX
 10
12.0
 20
9.0
  9
$UNITMODE
 70
     0
  9
$VISRETAIN
 70
     1
  9
$PLINEGEN
 70
     0
  9
$PSLTSCALE
 70
     1
  9
$TREEDEPTH
 70
  3020
  9
$CMLSTYLE
  2
STANDARD
  9
$CMLJUST
 70
     0
  9
$CMLSCALE
 40
1.0
  9
$PROXYGRAPHICS
 70
     1
  9
$MEASUREMENT
 70
     0
  9
$CELWEIGHT
370
    -1
  9
$ENDCAPS
280
     0
  9
$JOINSTYLE
280
     0
  9
$LWDISPLAY
290
     0
  9
$INSUNITS
 70
     0
  9
$HYPERLINKBASE
  1

  9
$STYLESHEET
  1

  9
$XEDIT
290
     1
  9
$CEPSNTYPE
380
     0
  9
$PSTYLEMODE
290
     1
  9
$FINGERPRINTGUID
  2
{23D75843-68C0-4EFE-BCD3-8760D634CD04}
  9
$VERSIONGUID
  2
{FAEB1C32-E019-11D5-929B-00C0DF256EC4}
  9
$EXTNAMES
290
     1
  9
$PSVPSCALE
 40
0.0
  9
$OLESTARTUP
290
     0
  9
$SORTENTS
280
   127
  9
$INDEXCTL
280
     0
  9
$HIDETEXT
280
     1
  9
$XCLIPFRAME
290
     0
  9
$HALOGAP
280
     0
  9
$OBSCOLOR
 70
   257
  9
$OBSLTYPE
280
     0
  9
$INTERSECTIONDISPLAY
280
     0
  9
$INTERSECTIONCOLOR
 70
   257
  9
$DIMASSOC
280
     2
  9
$PROJECTNAME
  1

  9
$CAMERADISPLAY
290
     0
  9
$LENSLENGTH
 40
50.0
  9
$CAMERAHEIGHT
 40
0.0
  9
$STEPSPERSEC
 40
2.0
  9
$STEPSIZE
 40
6.0
  9
$3DDWFPREC
 40
2.0
  9
$PSOLWIDTH
 40
0.25
  9
$PSOLHEIGHT
 40
4.0
  9
$LOFTANG1
 40
1.570796326794897
  9
$LOFTANG2
 40
1.570796326794897
  9
$LOFTMAG1
 40
0.0
  9
$LOFTMAG2
 40
0.0
  9
$LOFTPARAM
 70
     7
  9
$LOFTNORMALS
280
     1
  9
$LATITUDE
 40
37.795
  9
$LONGITUDE
 40
-122.394
  9
$NORTHDIRECTION
 40
0.0
  9
$TIMEZONE
 70
 -8000
  9
$LIGHTGLYPHDISPLAY
280
     1
  9
$TILEMODELIGHTSYNCH
280
     1
  9
$SOLIDHIST
280
     1
  9
$SHOWHIST
280
     1
  9
$DWFFRAME
280
     2
  9
$DGNFRAME
280
     2
  9
$REALWORLDSCALE
290
     1
  9
$INTERFERECOLOR
 62
   256
  9
$CSHADOW
280
     0
  9
$SHADOWPLANELOCATION
 40
0.0
  0
ENDSEC
  0
SECTION
  2
CLASSES
  0
CLASS
  1
SCALE
  2
AcDbScale
  3
ObjectDBX Classes
 90
     1153
 91
        4
280
     0
281
     0
  0
CLASS
  1
DICTIONARYVAR
  2
AcDbDictionaryVar
  3
ObjectDBX Classes
 90
        0
 91
        4
280
     0
281
     0
  0
ENDSEC
  0
SECTION
  2
TABLES
  0
TABLE
  2
VPORT
  5
8
330
0
100
AcDbSymbolTable
 70
     1
  0
VPORT
  5
1E
330
8
100
AcDbSymbolTableRecord
100
AcDbViewportTableRecord
  2
*ACTIVE
 70
     0
 10
0.0
 20
0.0
 11
1.0
 21
1.0
 12
32.6941
 22
51.1944
 13
0.0
 23
0.0
 14
0.1
 24
0.1
 15
0.1
 25
0.1
 16
0.0
 26
0.0
 36
1.0
 17
0.0
 27
0.0
 37
0.0
 40
12.4444
 41
2.1228
 42
50.0
 43
0.0
 44
0.0
 50
0.0
 51
0.0
 71
     0
 72
   100
 73
     1
 74
     1
 75
     0
 76
     0
 77
     0
 78
     0
281
     0
 65
     1
110
0.0
120
0.0
130
0.0
111
1.0
121
0.0
131
0.0
112
0.0
122
1.0
132
0.0
 79
     0
146
0.0
 60
     3
 61
     5
292
     1
282
     1
141
0.0
142
0.0
 63
   250
  0
ENDTAB
  0
TABLE
  2
LTYPE
  5
5
330
0
100
AcDbSymbolTable
 70
     1
  0
LTYPE
  5
12
330
5
100
AcDbSymbolTableRecord
100
AcDbLinetypeTableRecord
  2
BYBLOCK
 70
     0
  3

 72
    65
 73
     0
 40
0.0
  0
LTYPE
  5
13
330
5
100
AcDbSymbolTableRecord
100
AcDbLinetypeTableRecord
  2
BYLAYER
 70
     0
  3

 72
    65
 73
     0
 40
0.0
  0
LTYPE
  5
14
330
5
100
AcDbSymbolTableRecord
100
AcDbLinetypeTableRecord
  2
CONTINUOUS
 70
     0
  3
Solid line
 72
    65
 73
     0
 40
0.0
  0
ENDTAB
  0
TABLE
  2
LAYER
  5
2
330
0
100
AcDbSymbolTable
 70
     3
  0
LAYER
  5
E
330
2
100
AcDbSymbolTableRecord
100
AcDbLayerTableRecord
  2
0
 70
     0
 62
     7
  6
CONTINUOUS
370
    -3
390
0
347
0
  0
LAYER
  5
20
330
2
100
AcDbSymbolTableRecord
100
AcDbLayerTableRecord
  2
Layout
 70
     0
 62
     7
  6
CONTINUOUS
370
    -3
390
0
347
0
  0
LAYER
  5
21
330
2
100
AcDbSymbolTableRecord
100
AcDbLayerTableRecord
  2
Holes
 70
     0
 62
     7
  6
CONTINUOUS
370
    -3
390
0
347
0
  0
ENDTAB
  0
TABLE
  2
STYLE
  5
3
330
0
100
AcDbSymbolTable
 70
     1
  0
STYLE
  5
F
330
3
100
AcDbSymbolTableRecord
100
AcDbTextStyleTableRecord
  2
STANDARD
 70
     0
 40
0.0
 41
1.0
 50
0.0
 71
     0
 42
0.2
  3
txt
  4

  0
ENDTAB
  0
TABLE
  2
VIEW
  5
6
330
0
100
AcDbSymbolTable
 70
     0
  0
ENDTAB
  0
TABLE
  2
UCS
  5
7
330
0
100
AcDbSymbolTable
 70
     0
  0
ENDTAB
  0
TABLE
  2
APPID
  5
9
330
0
100
AcDbSymbolTable
 70
     1
  0
APPID
  5
10
330
9
100
AcDbSymbolTableRecord
100
AcDbRegAppTableRecord
  2
ACAD
 70
     0
  0
ENDTAB
  0
TABLE
  2
DIMSTYLE
  5
A
330
0
100
AcDbSymbolTable
 70
     1
100
AcDbDimStyleTable
  0
DIMSTYLE
105
1D
330
A
100
AcDbSymbolTableRecord
100
AcDbDimStyleTableRecord
  2
STANDARD
 70
     0
340
F
  0
ENDTAB
  0
TABLE
  2
BLOCK_RECORD
  5
1
330
0
100
AcDbSymbolTable
 70
     0
  0
BLOCK_RECORD
  5
18
330
1
100
AcDbSymbolTableRecord
100
AcDbBlockTableRecord
  2
*MODEL_SPACE
340
12D
 70
     0
280
     1
281
     0
  0
BLOCK_RECORD
  5
15
330
1
100
AcDbSymbolTableRecord
100
AcDbBlockTableRecord
  2
*PAPER_SPACE
340
12E
 70
     0
280
     1
281
     0
  0
ENDTAB
  0
ENDSEC
  0
SECTION
  2
BLOCKS
  0
BLOCK
  5
19
330
18
100
AcDbEntity
  8
0
100
AcDbBlockBegin
  2
*MODEL_SPACE
 70
     0
 10
0.0
 20
0.0
 30
0.0
  3
*MODEL_SPACE
  1
     0
  0
ENDBLK
  5
1A
330
18
100
AcDbEntity
  8
0
100
AcDbBlockEnd
  0
BLOCK
  5
16
330
15
100
AcDbEntity
 67
     1
  8
0
100
AcDbBlockBegin
  2
*PAPER_SPACE
 70
     0
 10
0.0
 20
0.0
 30
0.0
  3
*PAPER_SPACE
  1
     0
  0
ENDBLK
  5
17
330
15
100
AcDbEntity
 67
     1
  8
0
100
AcDbBlockEnd
  0
ENDSEC
  0
SECTION
  2
ENTITIES
  0
CIRCLE
  5
22
330
18
100
AcDbEntity
  8
Holes
100
AcDbCircle
 10
99.4951
 20
58.0321
 30
0.0
 40
0.063
  0
CIRCLE
  5
23
330
18
100
AcDbEntity
  8
Holes
100
AcDbCircle
 10
99.9951
 20
58.0321
 30
0.0
 40
0.063
  0
CIRCLE
  5
24
330
18
100
AcDbEntity
  8
Holes
100
AcDbCircle
 10
100.4951
 20
58.0321
 30
0.0
 40
0.063
  0
CIRCLE
  5
25
330
18
100
AcDbEntity
  8
Holes
100
AcDbCircle
 10
100.9951
 20
58.0321
 30
0.0
 40
0.063
  0
CIRCLE
  5
26
330
18
100
AcDbEntity
  8
Holes
100
AcDbCircle
 10
101.4951
 20
58.0321
 30
0.0
 40
0.063
  0
CIRCLE
  5
27
330
18
100
AcDbEntity
  8
Holes
100
AcDbCircle
 10
101.9951
 20
58.0321
 30
0.0
 40
0.063
  0
CIRCLE
  5
28
330
18
100
AcDbEntity
  8
Holes
100
AcDbCircle
 10
102.4951
 20
58.0321
 30
0.0
 40
0.063
  0
CIRCLE
  5
29
330
18
100
AcDbEntity
  8
Holes
100
AcDbCircle
 10
102.9951
 20
58.0321
 30
0.0
 40
0.063
  0
CIRCLE
  5
2A
330
18
100
AcDbEntity
  8
Holes
100
AcDbCircle
 10
102.9951
 20
57.6571
 30
0.0
 40
0.063
  0
CIRCLE
  5
2B
330
18
100
AcDbEntity
  8
Holes
100
AcDbCircle
 10
102.4951
 20
57.6571
 30
0.0
 40
0.063
  0
CIRCLE
  5
2C
330
18
100
AcDbEntity
  8
Holes
100
AcDbCircle
 10
101.9951
 20
57.6571
 30
0.0
 40
0.063
  0
CIRCLE
  5
2D
330
18
100
AcDbEntity
  8
Holes
100
AcDbCircle
 10
101.4951
 20
57.6571
 30
0.0
 40
0.063
  0
CIRCLE
  5
2E
330
18
100
AcDbEntity
  8
Holes
100
AcDbCircle
 10
100.9951
 20
57.6571
 30
0.0
 40
0.063
  0
CIRCLE
  5
2F
330
18
100
AcDbEntity
  8
Holes
100
AcDbCircle
 10
100.4951
 20
57.6571
 30
0.0
 40
0.063
  0
CIRCLE
  5
30
330
18
100
AcDbEntity
  8
Holes
100
AcDbCircle
 10
99.9951
 20
57.6571
 30
0.0
 40
0.063
  0
CIRCLE
  5
31
330
18
100
AcDbEntity
  8
Holes
100
AcDbCircle
 10
99.4951
 20
57.6571
 30
0.0
 40
0.063
  0
CIRCLE
  5
32
330
18
100
AcDbEntity
  8
Holes
100
AcDbCircle
 10
102.9949
 20
56.9231
 30
0.0
 40
0.063
  0
CIRCLE
  5
33
330
18
100
AcDbEntity
  8
Holes
100
AcDbCircle
 10
102.4949
 20
56.9231
 30
0.0
 40
0.063
  0
CIRCLE
  5
34
330
18
100
AcDbEntity
  8
Holes
100
AcDbCircle
 10
102.9949
 20
56.548
 30
0.0
 40
0.063
  0
CIRCLE
  5
35
330
18
100
AcDbEntity
  8
Holes
100
AcDbCircle
 10
102.4949
 20
56.548
 30
0.0
 40
0.063
  0
CIRCLE
  5
36
330
18
100
AcDbEntity
  8
Holes
100
AcDbCircle
 10
100.9304
 20
56.2934
 30
0.0
 40
0.063
  0
CIRCLE
  5
37
330
18
100
AcDbEntity
  8
Holes
100
AcDbCircle
 10
100.7519
 20
56.4765
 30
0.0
 40
0.063
  0
CIRCLE
  5
38
330
18
100
AcDbEntity
  8
Holes
100
AcDbCircle
 10
100.4993
 20
56.5475
 30
0.0
 40
0.063
  0
CIRCLE
  5
39
330
18
100
AcDbEntity
  8
Holes
100
AcDbCircle
 10
100.2488
 20
56.4827
 30
0.0
 40
0.063
  0
CIRCLE
  5
3A
330
18
100
AcDbEntity
  8
Holes
100
AcDbCircle
 10
100.0617
 20
56.297
 30
0.0
 40
0.063
  0
CIRCLE
  5
3B
330
18
100
AcDbEntity
  8
Holes
100
AcDbCircle
 10
100.0036
 20
56.9162
 30
0.0
 40
0.063
  0
CIRCLE
  5
3C
330
18
100
AcDbEntity
  8
Holes
100
AcDbCircle
 10
100.5036
 20
57.0491
 30
0.0
 40
0.063
  0
CIRCLE
  5
3D
330
18
100
AcDbEntity
  8
Holes
100
AcDbCircle
 10
101.0088
 20
56.9055
 30
0.0
 40
0.063
  0
CIRCLE
  5
3E
330
18
100
AcDbEntity
  8
Holes
100
AcDbCircle
 10
101.3658
 20
56.5392
 30
0.0
 40
0.063
  0
CIRCLE
  5
3F
330
18
100
AcDbEntity
  8
Holes
100
AcDbCircle
 10
99.6284
 20
56.5464
 30
0.0
 40
0.063
  0
CIRCLE
  5
40
330
18
100
AcDbEntity
  8
Holes
100
AcDbCircle
 10
99.4951
 20
56.0476
 30
0.0
 40
0.063
  0
CIRCLE
  5
41
330
18
100
AcDbEntity
  8
Holes
100
AcDbCircle
 10
99.9951
 20
56.0476
 30
0.0
 40
0.063
  0
CIRCLE
  5
42
330
18
100
AcDbEntity
  8
Holes
100
AcDbCircle
 10
100.9951
 20
56.0476
 30
0.0
 40
0.063
  0
CIRCLE
  5
43
330
18
100
AcDbEntity
  8
Holes
100
AcDbCircle
 10
101.4951
 20
56.0476
 30
0.0
 40
0.063
  0
CIRCLE
  5
44
330
18
100
AcDbEntity
  8
Holes
100
AcDbCircle
 10
102.4949
 20
56.0476
 30
0.0
 40
0.063
  0
CIRCLE
  5
45
330
18
100
AcDbEntity
  8
Holes
100
AcDbCircle
 10
102.9949
 20
56.0476
 30
0.0
 40
0.063
  0
CIRCLE
  5
46
330
18
100
AcDbEntity
  8
Holes
100
AcDbCircle
 10
102.9949
 20
55.7976
 30
0.0
 40
0.063
  0
CIRCLE
  5
47
330
18
100
AcDbEntity
  8
Holes
100
AcDbCircle
 10
102.4949
 20
55.7976
 30
0.0
 40
0.063
  0
CIRCLE
  5
48
330
18
100
AcDbEntity
  8
Holes
100
AcDbCircle
 10
101.4951
 20
55.7976
 30
0.0
 40
0.063
  0
CIRCLE
  5
49
330
18
100
AcDbEntity
  8
Holes
100
AcDbCircle
 10
100.9951
 20
55.7976
 30
0.0
 40
0.063
  0
CIRCLE
  5
4A
330
18
100
AcDbEntity
  8
Holes
100
AcDbCircle
 10
99.9951
 20
55.7976
 30
0.0
 40
0.063
  0
CIRCLE
  5
4B
330
18
100
AcDbEntity
  8
Holes
100
AcDbCircle
 10
99.4951
 20
55.7976
 30
0.0
 40
0.063
  0
CIRCLE
  5
4C
330
18
100
AcDbEntity
  8
Holes
100
AcDbCircle
 10
99.4951
 20
55.5476
 30
0.0
 40
0.063
  0
CIRCLE
  5
4D
330
18
100
AcDbEntity
  8
Holes
100
AcDbCircle
 10
99.4951
 20
55.2976
 30
0.0
 40
0.063
  0
CIRCLE
  5
4E
330
18
100
AcDbEntity
  8
Holes
100
AcDbCircle
 10
99.9951
 20
55.5476
 30
0.0
 40
0.063
  0
CIRCLE
  5
4F
330
18
100
AcDbEntity
  8
Holes
100
AcDbCircle
 10
99.9951
 20
55.2976
 30
0.0
 40
0.063
  0
CIRCLE
  5
50
330
18
100
AcDbEntity
  8
Holes
100
AcDbCircle
 10
99.9951
 20
55.0476
 30
0.0
 40
0.063
  0
CIRCLE
  5
51
330
18
100
AcDbEntity
  8
Holes
100
AcDbCircle
 10
99.4951
 20
55.0476
 30
0.0
 40
0.063
  0
CIRCLE
  5
52
330
18
100
AcDbEntity
  8
Holes
100
AcDbCircle
 10
100.9951
 20
55.5476
 30
0.0
 40
0.063
  0
CIRCLE
  5
53
330
18
100
AcDbEntity
  8
Holes
100
AcDbCircle
 10
101.4951
 20
55.5476
 30
0.0
 40
0.063
  0
CIRCLE
  5
54
330
18
100
AcDbEntity
  8
Holes
100
AcDbCircle
 10
101.4951
 20
55.2976
 30
0.0
 40
0.063
  0
CIRCLE
  5
55
330
18
100
AcDbEntity
  8
Holes
100
AcDbCircle
 10
100.9951
 20
55.2976
 30
0.0
 40
0.063
  0
CIRCLE
  5
56
330
18
100
AcDbEntity
  8
Holes
100
AcDbCircle
 10
100.9951
 20
55.0476
 30
0.0
 40
0.063
  0
CIRCLE
  5
57
330
18
100
AcDbEntity
  8
Holes
100
AcDbCircle
 10
101.4951
 20
55.0476
 30
0.0
 40
0.063
  0
CIRCLE
  5
58
330
18
100
AcDbEntity
  8
Holes
100
AcDbCircle
 10
102.4949
 20
55.5476
 30
0.0
 40
0.063
  0
CIRCLE
  5
59
330
18
100
AcDbEntity
  8
Holes
100
AcDbCircle
 10
102.9949
 20
55.5476
 30
0.0
 40
0.063
  0
CIRCLE
  5
5A
330
18
100
AcDbEntity
  8
Holes
100
AcDbCircle
 10
102.9949
 20
55.2976
 30
0.0
 40
0.063
  0
CIRCLE
  5
5B
330
18
100
AcDbEntity
  8
Holes
100
AcDbCircle
 10
102.4949
 20
55.2976
 30
0.0
 40
0.063
  0
CIRCLE
  5
5C
330
18
100
AcDbEntity
  8
Holes
100
AcDbCircle
 10
102.4949
 20
55.0476
 30
0.0
 40
0.063
  0
CIRCLE
  5
5D
330
18
100
AcDbEntity
  8
Holes
100
AcDbCircle
 10
102.9949
 20
55.0476
 30
0.0
 40
0.063
  0
CIRCLE
  5
5E
330
18
100
AcDbEntity
  8
Holes
100
AcDbCircle
 10
102.9949
 20
54.5476
 30
0.0
 40
0.063
  0
CIRCLE
  5
5F
330
18
100
AcDbEntity
  8
Holes
100
AcDbCircle
 10
102.4949
 20
54.5476
 30
0.0
 40
0.063
  0
CIRCLE
  5
60
330
18
100
AcDbEntity
  8
Holes
100
AcDbCircle
 10
102.4949
 20
54.2976
 30
0.0
 40
0.063
  0
CIRCLE
  5
61
330
18
100
AcDbEntity
  8
Holes
100
AcDbCircle
 10
102.9949
 20
54.2976
 30
0.0
 40
0.063
  0
CIRCLE
  5
62
330
18
100
AcDbEntity
  8
Holes
100
AcDbCircle
 10
102.9949
 20
54.0476
 30
0.0
 40
0.063
  0
CIRCLE
  5
63
330
18
100
AcDbEntity
  8
Holes
100
AcDbCircle
 10
102.9949
 20
53.7976
 30
0.0
 40
0.063
  0
CIRCLE
  5
64
330
18
100
AcDbEntity
  8
Holes
100
AcDbCircle
 10
102.9949
 20
53.5476
 30
0.0
 40
0.063
  0
CIRCLE
  5
65
330
18
100
AcDbEntity
  8
Holes
100
AcDbCircle
 10
102.4949
 20
53.5476
 30
0.0
 40
0.063
  0
CIRCLE
  5
66
330
18
100
AcDbEntity
  8
Holes
100
AcDbCircle
 10
102.4949
 20
53.7976
 30
0.0
 40
0.063
  0
CIRCLE
  5
67
330
18
100
AcDbEntity
  8
Holes
100
AcDbCircle
 10
102.4949
 20
54.0476
 30
0.0
 40
0.063
  0
CIRCLE
  5
68
330
18
100
AcDbEntity
  8
Holes
100
AcDbCircle
 10
101.4951
 20
54.5476
 30
0.0
 40
0.063
  0
CIRCLE
  5
69
330
18
100
AcDbEntity
  8
Holes
100
AcDbCircle
 10
100.9951
 20
54.5476
 30
0.0
 40
0.063
  0
CIRCLE
  5
6A
330
18
100
AcDbEntity
  8
Holes
100
AcDbCircle
 10
99.9951
 20
54.5476
 30
0.0
 40
0.063
  0
CIRCLE
  5
6B
330
18
100
AcDbEntity
  8
Holes
100
AcDbCircle
 10
99.4951
 20
54.5476
 30
0.0
 40
0.063
  0
CIRCLE
  5
6C
330
18
100
AcDbEntity
  8
Holes
100
AcDbCircle
 10
99.4951
 20
54.2976
 30
0.0
 40
0.063
  0
CIRCLE
  5
6D
330
18
100
AcDbEntity
  8
Holes
100
AcDbCircle
 10
99.9951
 20
54.2976
 30
0.0
 40
0.063
  0
CIRCLE
  5
6E
330
18
100
AcDbEntity
  8
Holes
100
AcDbCircle
 10
100.9951
 20
54.2976
 30
0.0
 40
0.063
  0
CIRCLE
  5
6F
330
18
100
AcDbEntity
  8
Holes
100
AcDbCircle
 10
101.4951
 20
54.2976
 30
0.0
 40
0.063
  0
CIRCLE
  5
70
330
18
100
AcDbEntity
  8
Holes
100
AcDbCircle
 10
101.4951
 20
54.0476
 30
0.0
 40
0.063
  0
CIRCLE
  5
71
330
18
100
AcDbEntity
  8
Holes
100
AcDbCircle
 10
100.9951
 20
54.0476
 30
0.0
 40
0.063
  0
CIRCLE
  5
72
330
18
100
AcDbEntity
  8
Holes
100
AcDbCircle
 10
99.9951
 20
54.0476
 30
0.0
 40
0.063
  0
CIRCLE
  5
73
330
18
100
AcDbEntity
  8
Holes
100
AcDbCircle
 10
99.4951
 20
54.0476
 30
0.0
 40
0.063
  0
CIRCLE
  5
74
330
18
100
AcDbEntity
  8
Holes
100
AcDbCircle
 10
99.4951
 20
53.7976
 30
0.0
 40
0.063
  0
CIRCLE
  5
75
330
18
100
AcDbEntity
  8
Holes
100
AcDbCircle
 10
99.9951
 20
53.7976
 30
0.0
 40
0.063
  0
CIRCLE
  5
76
330
18
100
AcDbEntity
  8
Holes
100
AcDbCircle
 10
99.4951
 20
53.5476
 30
0.0
 40
0.063
  0
CIRCLE
  5
77
330
18
100
AcDbEntity
  8
Holes
100
AcDbCircle
 10
99.9951
 20
53.5476
 30
0.0
 40
0.063
  0
CIRCLE
  5
78
330
18
100
AcDbEntity
  8
Holes
100
AcDbCircle
 10
100.9951
 20
53.7976
 30
0.0
 40
0.063
  0
CIRCLE
  5
79
330
18
100
AcDbEntity
  8
Holes
100
AcDbCircle
 10
101.4951
 20
53.7976
 30
0.0
 40
0.063
  0
CIRCLE
  5
7A
330
18
100
AcDbEntity
  8
Holes
100
AcDbCircle
 10
101.4951
 20
53.5476
 30
0.0
 40
0.063
  0
CIRCLE
  5
7B
330
18
100
AcDbEntity
  8
Holes
100
AcDbCircle
 10
100.9951
 20
53.5476
 30
0.0
 40
0.063
  0
CIRCLE
  5
7C
330
18
100
AcDbEntity
  8
Holes
100
AcDbCircle
 10
99.4951
 20
53.0476
 30
0.0
 40
0.063
  0
CIRCLE
  5
7D
330
18
100
AcDbEntity
  8
Holes
100
AcDbCircle
 10
99.9951
 20
53.0476
 30
0.0
 40
0.063
  0
CIRCLE
  5
7E
330
18
100
AcDbEntity
  8
Holes
100
AcDbCircle
 10
100.9951
 20
53.0476
 30
0.0
 40
0.063
  0
CIRCLE
  5
7F
330
18
100
AcDbEntity
  8
Holes
100
AcDbCircle
 10
101.4951
 20
53.0476
 30
0.0
 40
0.063
  0
CIRCLE
  5
80
330
18
100
AcDbEntity
  8
Holes
100
AcDbCircle
 10
102.4949
 20
53.0476
 30
0.0
 40
0.063
  0
CIRCLE
  5
81
330
18
100
AcDbEntity
  8
Holes
100
AcDbCircle
 10
102.9949
 20
53.0476
 30
0.0
 40
0.063
  0
CIRCLE
  5
82
330
18
100
AcDbEntity
  8
Holes
100
AcDbCircle
 10
102.9949
 20
52.7976
 30
0.0
 40
0.063
  0
CIRCLE
  5
83
330
18
100
AcDbEntity
  8
Holes
100
AcDbCircle
 10
102.4949
 20
52.7976
 30
0.0
 40
0.063
  0
CIRCLE
  5
84
330
18
100
AcDbEntity
  8
Holes
100
AcDbCircle
 10
102.4949
 20
52.5476
 30
0.0
 40
0.063
  0
CIRCLE
  5
85
330
18
100
AcDbEntity
  8
Holes
100
AcDbCircle
 10
102.9949
 20
52.5476
 30
0.0
 40
0.063
  0
CIRCLE
  5
86
330
18
100
AcDbEntity
  8
Holes
100
AcDbCircle
 10
102.9949
 20
52.2976
 30
0.0
 40
0.063
  0
CIRCLE
  5
87
330
18
100
AcDbEntity
  8
Holes
100
AcDbCircle
 10
102.4949
 20
52.2976
 30
0.0
 40
0.063
  0
CIRCLE
  5
88
330
18
100
AcDbEntity
  8
Holes
100
AcDbCircle
 10
102.4949
 20
52.0476
 30
0.0
 40
0.063
  0
CIRCLE
  5
89
330
18
100
AcDbEntity
  8
Holes
100
AcDbCircle
 10
102.9949
 20
52.0476
 30
0.0
 40
0.063
  0
CIRCLE
  5
8A
330
18
100
AcDbEntity
  8
Holes
100
AcDbCircle
 10
101.4951
 20
52.0476
 30
0.0
 40
0.063
  0
CIRCLE
  5
8B
330
18
100
AcDbEntity
  8
Holes
100
AcDbCircle
 10
101.4951
 20
52.2976
 30
0.0
 40
0.063
  0
CIRCLE
  5
8C
330
18
100
AcDbEntity
  8
Holes
100
AcDbCircle
 10
101.4951
 20
52.5476
 30
0.0
 40
0.063
  0
CIRCLE
  5
8D
330
18
100
AcDbEntity
  8
Holes
100
AcDbCircle
 10
101.4951
 20
52.7976
 30
0.0
 40
0.063
  0
CIRCLE
  5
8E
330
18
100
AcDbEntity
  8
Holes
100
AcDbCircle
 10
100.9951
 20
52.7976
 30
0.0
 40
0.063
  0
CIRCLE
  5
8F
330
18
100
AcDbEntity
  8
Holes
100
AcDbCircle
 10
100.9951
 20
52.5476
 30
0.0
 40
0.063
  0
CIRCLE
  5
90
330
18
100
AcDbEntity
  8
Holes
100
AcDbCircle
 10
100.9951
 20
52.2976
 30
0.0
 40
0.063
  0
CIRCLE
  5
91
330
18
100
AcDbEntity
  8
Holes
100
AcDbCircle
 10
100.9951
 20
52.0476
 30
0.0
 40
0.063
  0
CIRCLE
  5
92
330
18
100
AcDbEntity
  8
Holes
100
AcDbCircle
 10
99.9951
 20
52.0476
 30
0.0
 40
0.063
  0
CIRCLE
  5
93
330
18
100
AcDbEntity
  8
Holes
100
AcDbCircle
 10
99.9951
 20
52.2976
 30
0.0
 40
0.063
  0
CIRCLE
  5
94
330
18
100
AcDbEntity
  8
Holes
100
AcDbCircle
 10
99.9951
 20
52.5476
 30
0.0
 40
0.063
  0
CIRCLE
  5
95
330
18
100
AcDbEntity
  8
Holes
100
AcDbCircle
 10
99.9951
 20
52.7976
 30
0.0
 40
0.063
  0
CIRCLE
  5
96
330
18
100
AcDbEntity
  8
Holes
100
AcDbCircle
 10
99.4951
 20
52.7976
 30
0.0
 40
0.063
  0
CIRCLE
  5
97
330
18
100
AcDbEntity
  8
Holes
100
AcDbCircle
 10
99.4951
 20
52.5476
 30
0.0
 40
0.063
  0
CIRCLE
  5
98
330
18
100
AcDbEntity
  8
Holes
100
AcDbCircle
 10
99.4951
 20
52.2976
 30
0.0
 40
0.063
  0
CIRCLE
  5
99
330
18
100
AcDbEntity
  8
Holes
100
AcDbCircle
 10
99.4951
 20
52.0476
 30
0.0
 40
0.063
  0
CIRCLE
  5
9A
330
18
100
AcDbEntity
  8
Holes
100
AcDbCircle
 10
99.4951
 20
51.5476
 30
0.0
 40
0.063
  0
CIRCLE
  5
9B
330
18
100
AcDbEntity
  8
Holes
100
AcDbCircle
 10
99.4951
 20
51.2976
 30
0.0
 40
0.063
  0
CIRCLE
  5
9C
330
18
100
AcDbEntity
  8
Holes
100
AcDbCircle
 10
99.4951
 20
51.0476
 30
0.0
 40
0.063
  0
CIRCLE
  5
9D
330
18
100
AcDbEntity
  8
Holes
100
AcDbCircle
 10
99.4951
 20
50.7976
 30
0.0
 40
0.063
  0
CIRCLE
  5
9E
330
18
100
AcDbEntity
  8
Holes
100
AcDbCircle
 10
99.4951
 20
50.5476
 30
0.0
 40
0.063
  0
CIRCLE
  5
9F
330
18
100
AcDbEntity
  8
Holes
100
AcDbCircle
 10
99.4951
 20
50.0476
 30
0.0
 40
0.063
  0
CIRCLE
  5
A0
330
18
100
AcDbEntity
  8
Holes
100
AcDbCircle
 10
99.4951
 20
49.7976
 30
0.0
 40
0.063
  0
CIRCLE
  5
A1
330
18
100
AcDbEntity
  8
Holes
100
AcDbCircle
 10
99.4951
 20
49.5476
 30
0.0
 40
0.063
  0
CIRCLE
  5
A2
330
18
100
AcDbEntity
  8
Holes
100
AcDbCircle
 10
99.4951
 20
49.2976
 30
0.0
 40
0.063
  0
CIRCLE
  5
A3
330
18
100
AcDbEntity
  8
Holes
100
AcDbCircle
 10
99.4951
 20
49.0476
 30
0.0
 40
0.063
  0
CIRCLE
  5
A4
330
18
100
AcDbEntity
  8
Holes
100
AcDbCircle
 10
99.9951
 20
49.0476
 30
0.0
 40
0.063
  0
CIRCLE
  5
A5
330
18
100
AcDbEntity
  8
Holes
100
AcDbCircle
 10
99.9951
 20
49.2976
 30
0.0
 40
0.063
  0
CIRCLE
  5
A6
330
18
100
AcDbEntity
  8
Holes
100
AcDbCircle
 10
99.9951
 20
49.5476
 30
0.0
 40
0.063
  0
CIRCLE
  5
A7
330
18
100
AcDbEntity
  8
Holes
100
AcDbCircle
 10
99.9951
 20
49.7976
 30
0.0
 40
0.063
  0
CIRCLE
  5
A8
330
18
100
AcDbEntity
  8
Holes
100
AcDbCircle
 10
99.9951
 20
50.0476
 30
0.0
 40
0.063
  0
CIRCLE
  5
A9
330
18
100
AcDbEntity
  8
Holes
100
AcDbCircle
 10
99.9951
 20
50.5476
 30
0.0
 40
0.063
  0
CIRCLE
  5
AA
330
18
100
AcDbEntity
  8
Holes
100
AcDbCircle
 10
99.9951
 20
50.7976
 30
0.0
 40
0.063
  0
CIRCLE
  5
AB
330
18
100
AcDbEntity
  8
Holes
100
AcDbCircle
 10
99.9951
 20
51.0476
 30
0.0
 40
0.063
  0
CIRCLE
  5
AC
330
18
100
AcDbEntity
  8
Holes
100
AcDbCircle
 10
99.9951
 20
51.2976
 30
0.0
 40
0.063
  0
CIRCLE
  5
AD
330
18
100
AcDbEntity
  8
Holes
100
AcDbCircle
 10
99.9951
 20
51.5476
 30
0.0
 40
0.063
  0
CIRCLE
  5
AE
330
18
100
AcDbEntity
  8
Holes
100
AcDbCircle
 10
100.9951
 20
51.5476
 30
0.0
 40
0.063
  0
CIRCLE
  5
AF
330
18
100
AcDbEntity
  8
Holes
100
AcDbCircle
 10
100.9951
 20
51.2976
 30
0.0
 40
0.063
  0
CIRCLE
  5
B0
330
18
100
AcDbEntity
  8
Holes
100
AcDbCircle
 10
100.9951
 20
51.0476
 30
0.0
 40
0.063
  0
CIRCLE
  5
B1
330
18
100
AcDbEntity
  8
Holes
100
AcDbCircle
 10
100.9951
 20
50.7976
 30
0.0
 40
0.063
  0
CIRCLE
  5
B2
330
18
100
AcDbEntity
  8
Holes
100
AcDbCircle
 10
100.9951
 20
50.5476
 30
0.0
 40
0.063
  0
CIRCLE
  5
B3
330
18
100
AcDbEntity
  8
Holes
100
AcDbCircle
 10
100.9951
 20
50.0476
 30
0.0
 40
0.063
  0
CIRCLE
  5
B4
330
18
100
AcDbEntity
  8
Holes
100
AcDbCircle
 10
100.9951
 20
49.7976
 30
0.0
 40
0.063
  0
CIRCLE
  5
B5
330
18
100
AcDbEntity
  8
Holes
100
AcDbCircle
 10
100.9951
 20
49.5476
 30
0.0
 40
0.063
  0
CIRCLE
  5
B6
330
18
100
AcDbEntity
  8
Holes
100
AcDbCircle
 10
100.9951
 20
49.2976
 30
0.0
 40
0.063
  0
CIRCLE
  5
B7
330
18
100
AcDbEntity
  8
Holes
100
AcDbCircle
 10
100.9951
 20
49.0476
 30
0.0
 40
0.063
  0
CIRCLE
  5
B8
330
18
100
AcDbEntity
  8
Holes
100
AcDbCircle
 10
101.4951
 20
49.0476
 30
0.0
 40
0.063
  0
CIRCLE
  5
B9
330
18
100
AcDbEntity
  8
Holes
100
AcDbCircle
 10
101.4951
 20
49.2976
 30
0.0
 40
0.063
  0
CIRCLE
  5
BA
330
18
100
AcDbEntity
  8
Holes
100
AcDbCircle
 10
101.4951
 20
49.5476
 30
0.0
 40
0.063
  0
CIRCLE
  5
BB
330
18
100
AcDbEntity
  8
Holes
100
AcDbCircle
 10
101.4951
 20
49.7976
 30
0.0
 40
0.063
  0
CIRCLE
  5
BC
330
18
100
AcDbEntity
  8
Holes
100
AcDbCircle
 10
101.4951
 20
50.0476
 30
0.0
 40
0.063
  0
CIRCLE
  5
BD
330
18
100
AcDbEntity
  8
Holes
100
AcDbCircle
 10
101.4951
 20
50.5476
 30
0.0
 40
0.063
  0
CIRCLE
  5
BE
330
18
100
AcDbEntity
  8
Holes
100
AcDbCircle
 10
101.4951
 20
50.7976
 30
0.0
 40
0.063
  0
CIRCLE
  5
BF
330
18
100
AcDbEntity
  8
Holes
100
AcDbCircle
 10
101.4951
 20
51.0476
 30
0.0
 40
0.063
  0
CIRCLE
  5
C0
330
18
100
AcDbEntity
  8
Holes
100
AcDbCircle
 10
101.4951
 20
51.2976
 30
0.0
 40
0.063
  0
CIRCLE
  5
C1
330
18
100
AcDbEntity
  8
Holes
100
AcDbCircle
 10
101.4951
 20
51.5476
 30
0.0
 40
0.063
  0
CIRCLE
  5
C2
330
18
100
AcDbEntity
  8
Holes
100
AcDbCircle
 10
102.4949
 20
51.5476
 30
0.0
 40
0.063
  0
CIRCLE
  5
C3
330
18
100
AcDbEntity
  8
Holes
100
AcDbCircle
 10
102.4949
 20
51.2976
 30
0.0
 40
0.063
  0
CIRCLE
  5
C4
330
18
100
AcDbEntity
  8
Holes
100
AcDbCircle
 10
102.4949
 20
51.0476
 30
0.0
 40
0.063
  0
CIRCLE
  5
C5
330
18
100
AcDbEntity
  8
Holes
100
AcDbCircle
 10
102.4949
 20
50.7976
 30
0.0
 40
0.063
  0
CIRCLE
  5
C6
330
18
100
AcDbEntity
  8
Holes
100
AcDbCircle
 10
102.4949
 20
50.5476
 30
0.0
 40
0.063
  0
CIRCLE
  5
C7
330
18
100
AcDbEntity
  8
Holes
100
AcDbCircle
 10
102.4949
 20
50.0476
 30
0.0
 40
0.063
  0
CIRCLE
  5
C8
330
18
100
AcDbEntity
  8
Holes
100
AcDbCircle
 10
102.4949
 20
49.7976
 30
0.0
 40
0.063
  0
CIRCLE
  5
C9
330
18
100
AcDbEntity
  8
Holes
100
AcDbCircle
 10
102.4949
 20
49.5476
 30
0.0
 40
0.063
  0
CIRCLE
  5
CA
330
18
100
AcDbEntity
  8
Holes
100
AcDbCircle
 10
102.4949
 20
49.2976
 30
0.0
 40
0.063
  0
CIRCLE
  5
CB
330
18
100
AcDbEntity
  8
Holes
100
AcDbCircle
 10
102.4949
 20
49.0476
 30
0.0
 40
0.063
  0
CIRCLE
  5
CC
330
18
100
AcDbEntity
  8
Holes
100
AcDbCircle
 10
102.9949
 20
49.0476
 30
0.0
 40
0.063
  0
CIRCLE
  5
CD
330
18
100
AcDbEntity
  8
Holes
100
AcDbCircle
 10
102.9949
 20
49.2976
 30
0.0
 40
0.063
  0
CIRCLE
  5
CE
330
18
100
AcDbEntity
  8
Holes
100
AcDbCircle
 10
102.9949
 20
49.5476
 30
0.0
 40
0.063
  0
CIRCLE
  5
CF
330
18
100
AcDbEntity
  8
Holes
100
AcDbCircle
 10
102.9949
 20
49.7976
 30
0.0
 40
0.063
  0
CIRCLE
  5
D0
330
18
100
AcDbEntity
  8
Holes
100
AcDbCircle
 10
102.9949
 20
50.0476
 30
0.0
 40
0.063
  0
CIRCLE
  5
D1
330
18
100
AcDbEntity
  8
Holes
100
AcDbCircle
 10
102.9949
 20
50.5476
 30
0.0
 40
0.063
  0
CIRCLE
  5
D2
330
18
100
AcDbEntity
  8
Holes
100
AcDbCircle
 10
102.9949
 20
50.7976
 30
0.0
 40
0.063
  0
CIRCLE
  5
D3
330
18
100
AcDbEntity
  8
Holes
100
AcDbCircle
 10
102.9949
 20
51.0476
 30
0.0
 40
0.063
  0
CIRCLE
  5
D4
330
18
100
AcDbEntity
  8
Holes
100
AcDbCircle
 10
102.9949
 20
51.2976
 30
0.0
 40
0.063
  0
CIRCLE
  5
D5
330
18
100
AcDbEntity
  8
Holes
100
AcDbCircle
 10
102.9949
 20
51.5476
 30
0.0
 40
0.063
  0
CIRCLE
  5
D6
330
18
100
AcDbEntity
  8
Holes
100
AcDbCircle
 10
99.4951
 20
48.5476
 30
0.0
 40
0.063
  0
CIRCLE
  5
D7
330
18
100
AcDbEntity
  8
Holes
100
AcDbCircle
 10
99.4951
 20
48.2976
 30
0.0
 40
0.063
  0
CIRCLE
  5
D8
330
18
100
AcDbEntity
  8
Holes
100
AcDbCircle
 10
99.4951
 20
48.0476
 30
0.0
 40
0.063
  0
CIRCLE
  5
D9
330
18
100
AcDbEntity
  8
Holes
100
AcDbCircle
 10
99.4951
 20
47.7976
 30
0.0
 40
0.063
  0
CIRCLE
  5
DA
330
18
100
AcDbEntity
  8
Holes
100
AcDbCircle
 10
99.4951
 20
47.5476
 30
0.0
 40
0.063
  0
CIRCLE
  5
DB
330
18
100
AcDbEntity
  8
Holes
100
AcDbCircle
 10
99.4951
 20
47.0476
 30
0.0
 40
0.063
  0
CIRCLE
  5
DC
330
18
100
AcDbEntity
  8
Holes
100
AcDbCircle
 10
99.4951
 20
46.7976
 30
0.0
 40
0.063
  0
CIRCLE
  5
DD
330
18
100
AcDbEntity
  8
Holes
100
AcDbCircle
 10
99.4951
 20
46.5476
 30
0.0
 40
0.063
  0
CIRCLE
  5
DE
330
18
100
AcDbEntity
  8
Holes
100
AcDbCircle
 10
99.4951
 20
46.2976
 30
0.0
 40
0.063
  0
CIRCLE
  5
DF
330
18
100
AcDbEntity
  8
Holes
100
AcDbCircle
 10
99.4953
 20
46.0476
 30
0.0
 40
0.063
  0
CIRCLE
  5
E0
330
18
100
AcDbEntity
  8
Holes
100
AcDbCircle
 10
99.9953
 20
46.0476
 30
0.0
 40
0.063
  0
CIRCLE
  5
E1
330
18
100
AcDbEntity
  8
Holes
100
AcDbCircle
 10
99.9951
 20
46.2976
 30
0.0
 40
0.063
  0
CIRCLE
  5
E2
330
18
100
AcDbEntity
  8
Holes
100
AcDbCircle
 10
99.9951
 20
46.5476
 30
0.0
 40
0.063
  0
CIRCLE
  5
E3
330
18
100
AcDbEntity
  8
Holes
100
AcDbCircle
 10
99.9951
 20
46.7976
 30
0.0
 40
0.063
  0
CIRCLE
  5
E4
330
18
100
AcDbEntity
  8
Holes
100
AcDbCircle
 10
99.9951
 20
47.0476
 30
0.0
 40
0.063
  0
CIRCLE
  5
E5
330
18
100
AcDbEntity
  8
Holes
100
AcDbCircle
 10
99.9951
 20
47.5476
 30
0.0
 40
0.063
  0
CIRCLE
  5
E6
330
18
100
AcDbEntity
  8
Holes
100
AcDbCircle
 10
99.9951
 20
47.7976
 30
0.0
 40
0.063
  0
CIRCLE
  5
E7
330
18
100
AcDbEntity
  8
Holes
100
AcDbCircle
 10
99.9951
 20
48.0476
 30
0.0
 40
0.063
  0
CIRCLE
  5
E8
330
18
100
AcDbEntity
  8
Holes
100
AcDbCircle
 10
99.9951
 20
48.2976
 30
0.0
 40
0.063
  0
CIRCLE
  5
E9
330
18
100
AcDbEntity
  8
Holes
100
AcDbCircle
 10
99.9951
 20
48.5476
 30
0.0
 40
0.063
  0
CIRCLE
  5
EA
330
18
100
AcDbEntity
  8
Holes
100
AcDbCircle
 10
100.9951
 20
48.5476
 30
0.0
 40
0.063
  0
CIRCLE
  5
EB
330
18
100
AcDbEntity
  8
Holes
100
AcDbCircle
 10
100.9951
 20
48.2976
 30
0.0
 40
0.063
  0
CIRCLE
  5
EC
330
18
100
AcDbEntity
  8
Holes
100
AcDbCircle
 10
100.9951
 20
48.0476
 30
0.0
 40
0.063
  0
CIRCLE
  5
ED
330
18
100
AcDbEntity
  8
Holes
100
AcDbCircle
 10
100.9951
 20
47.7976
 30
0.0
 40
0.063
  0
CIRCLE
  5
EE
330
18
100
AcDbEntity
  8
Holes
100
AcDbCircle
 10
100.9951
 20
47.5476
 30
0.0
 40
0.063
  0
CIRCLE
  5
EF
330
18
100
AcDbEntity
  8
Holes
100
AcDbCircle
 10
100.9951
 20
47.0476
 30
0.0
 40
0.063
  0
CIRCLE
  5
F0
330
18
100
AcDbEntity
  8
Holes
100
AcDbCircle
 10
100.9951
 20
46.7976
 30
0.0
 40
0.063
  0
CIRCLE
  5
F1
330
18
100
AcDbEntity
  8
Holes
100
AcDbCircle
 10
100.9951
 20
46.5476
 30
0.0
 40
0.063
  0
CIRCLE
  5
F2
330
18
100
AcDbEntity
  8
Holes
100
AcDbCircle
 10
100.9951
 20
46.2976
 30
0.0
 40
0.063
  0
CIRCLE
  5
F3
330
18
100
AcDbEntity
  8
Holes
100
AcDbCircle
 10
100.9951
 20
46.0476
 30
0.0
 40
0.063
  0
CIRCLE
  5
F4
330
18
100
AcDbEntity
  8
Holes
100
AcDbCircle
 10
101.2451
 20
45.5476
 30
0.0
 40
0.063
  0
CIRCLE
  5
F5
330
18
100
AcDbEntity
  8
Holes
100
AcDbCircle
 10
101.4951
 20
46.0476
 30
0.0
 40
0.063
  0
CIRCLE
  5
F6
330
18
100
AcDbEntity
  8
Holes
100
AcDbCircle
 10
101.4951
 20
46.2976
 30
0.0
 40
0.063
  0
CIRCLE
  5
F7
330
18
100
AcDbEntity
  8
Holes
100
AcDbCircle
 10
101.4951
 20
46.5476
 30
0.0
 40
0.063
  0
CIRCLE
  5
F8
330
18
100
AcDbEntity
  8
Holes
100
AcDbCircle
 10
101.4951
 20
46.7976
 30
0.0
 40
0.063
  0
CIRCLE
  5
F9
330
18
100
AcDbEntity
  8
Holes
100
AcDbCircle
 10
101.4951
 20
47.0476
 30
0.0
 40
0.063
  0
CIRCLE
  5
FA
330
18
100
AcDbEntity
  8
Holes
100
AcDbCircle
 10
101.4951
 20
47.5476
 30
0.0
 40
0.063
  0
CIRCLE
  5
FB
330
18
100
AcDbEntity
  8
Holes
100
AcDbCircle
 10
101.4951
 20
47.7976
 30
0.0
 40
0.063
  0
CIRCLE
  5
FC
330
18
100
AcDbEntity
  8
Holes
100
AcDbCircle
 10
101.4951
 20
48.0476
 30
0.0
 40
0.063
  0
CIRCLE
  5
FD
330
18
100
AcDbEntity
  8
Holes
100
AcDbCircle
 10
101.4951
 20
48.2976
 30
0.0
 40
0.063
  0
CIRCLE
  5
FE
330
18
100
AcDbEntity
  8
Holes
100
AcDbCircle
 10
101.4951
 20
48.5476
 30
0.0
 40
0.063
  0
CIRCLE
  5
FF
330
18
100
AcDbEntity
  8
Holes
100
AcDbCircle
 10
102.4949
 20
48.5476
 30
0.0
 40
0.063
  0
CIRCLE
  5
100
330
18
100
AcDbEntity
  8
Holes
100
AcDbCircle
 10
102.4949
 20
48.2976
 30
0.0
 40
0.063
  0
CIRCLE
  5
101
330
18
100
AcDbEntity
  8
Holes
100
AcDbCircle
 10
102.4949
 20
48.0476
 30
0.0
 40
0.063
  0
CIRCLE
  5
102
330
18
100
AcDbEntity
  8
Holes
100
AcDbCircle
 10
102.4949
 20
47.7976
 30
0.0
 40
0.063
  0
CIRCLE
  5
103
330
18
100
AcDbEntity
  8
Holes
100
AcDbCircle
 10
102.4949
 20
47.5476
 30
0.0
 40
0.063
  0
CIRCLE
  5
104
330
18
100
AcDbEntity
  8
Holes
100
AcDbCircle
 10
102.4949
 20
47.0476
 30
0.0
 40
0.063
  0
CIRCLE
  5
105
330
18
100
AcDbEntity
  8
Holes
100
AcDbCircle
 10
102.4949
 20
46.7976
 30
0.0
 40
0.063
  0
CIRCLE
  5
106
330
18
100
AcDbEntity
  8
Holes
100
AcDbCircle
 10
102.4949
 20
46.5476
 30
0.0
 40
0.063
  0
CIRCLE
  5
107
330
18
100
AcDbEntity
  8
Holes
100
AcDbCircle
 10
102.4949
 20
46.2976
 30
0.0
 40
0.063
  0
CIRCLE
  5
108
330
18
100
AcDbEntity
  8
Holes
100
AcDbCircle
 10
102.4949
 20
46.0476
 30
0.0
 40
0.063
  0
CIRCLE
  5
109
330
18
100
AcDbEntity
  8
Holes
100
AcDbCircle
 10
102.9949
 20
46.0476
 30
0.0
 40
0.063
  0
CIRCLE
  5
10A
330
18
100
AcDbEntity
  8
Holes
100
AcDbCircle
 10
102.9949
 20
46.2976
 30
0.0
 40
0.063
  0
CIRCLE
  5
10B
330
18
100
AcDbEntity
  8
Holes
100
AcDbCircle
 10
102.9949
 20
46.5476
 30
0.0
 40
0.063
  0
CIRCLE
  5
10C
330
18
100
AcDbEntity
  8
Holes
100
AcDbCircle
 10
102.9949
 20
46.7976
 30
0.0
 40
0.063
  0
CIRCLE
  5
10D
330
18
100
AcDbEntity
  8
Holes
100
AcDbCircle
 10
102.9949
 20
47.0476
 30
0.0
 40
0.063
  0
CIRCLE
  5
10E
330
18
100
AcDbEntity
  8
Holes
100
AcDbCircle
 10
102.9949
 20
47.5476
 30
0.0
 40
0.063
  0
CIRCLE
  5
10F
330
18
100
AcDbEntity
  8
Holes
100
AcDbCircle
 10
102.9949
 20
47.7976
 30
0.0
 40
0.063
  0
CIRCLE
  5
110
330
18
100
AcDbEntity
  8
Holes
100
AcDbCircle
 10
102.9949
 20
48.0476
 30
0.0
 40
0.063
  0
CIRCLE
  5
111
330
18
100
AcDbEntity
  8
Holes
100
AcDbCircle
 10
102.9949
 20
48.2976
 30
0.0
 40
0.063
  0
CIRCLE
  5
112
330
18
100
AcDbEntity
  8
Holes
100
AcDbCircle
 10
102.9949
 20
48.5476
 30
0.0
 40
0.063
  0
CIRCLE
  5
113
330
18
100
AcDbEntity
  8
Holes
100
AcDbCircle
 10
99.5838
 20
45.498
 30
0.0
 40
0.063
  0
CIRCLE
  5
114
330
18
100
AcDbEntity
  8
Holes
100
AcDbCircle
 10
100.0585
 20
45.655
 30
0.0
 40
0.063
  0
CIRCLE
  5
115
330
18
100
AcDbEntity
  8
Holes
100
AcDbCircle
 10
100.1913
 20
45.3755
 30
0.0
 40
0.063
  0
CIRCLE
  5
116
330
18
100
AcDbEntity
  8
Holes
100
AcDbCircle
 10
99.7697
 20
45.1067
 30
0.0
 40
0.063
  0
CIRCLE
  5
117
330
18
100
AcDbEntity
  8
Holes
100
AcDbCircle
 10
100.0459
 20
44.7732
 30
0.0
 40
0.063
  0
CIRCLE
  5
118
330
18
100
AcDbEntity
  8
Holes
100
AcDbCircle
 10
100.3886
 20
45.1374
 30
0.0
 40
0.063
  0
CIRCLE
  5
119
330
18
100
AcDbEntity
  8
Holes
100
AcDbCircle
 10
100.6479
 20
44.9496
 30
0.0
 40
0.063
  0
CIRCLE
  5
11A
330
18
100
AcDbEntity
  8
Holes
100
AcDbCircle
 10
100.4091
 20
44.5104
 30
0.0
 40
0.063
  0
CIRCLE
  5
11B
330
18
100
AcDbEntity
  8
Holes
100
AcDbCircle
 10
100.8028
 20
44.3545
 30
0.0
 40
0.063
  0
CIRCLE
  5
11C
330
18
100
AcDbEntity
  8
Holes
100
AcDbCircle
 10
100.9292
 20
44.8383
 30
0.0
 40
0.063
  0
CIRCLE
  5
11D
330
18
100
AcDbEntity
  8
Holes
100
AcDbCircle
 10
101.5307
 20
44.8308
 30
0.0
 40
0.063
  0
CIRCLE
  5
11E
330
18
100
AcDbEntity
  8
Holes
100
AcDbCircle
 10
101.8169
 20
44.9363
 30
0.0
 40
0.063
  0
CIRCLE
  5
11F
330
18
100
AcDbEntity
  8
Holes
100
AcDbCircle
 10
102.0838
 20
45.121
 30
0.0
 40
0.063
  0
CIRCLE
  5
120
330
18
100
AcDbEntity
  8
Holes
100
AcDbCircle
 10
102.2891
 20
45.3605
 30
0.0
 40
0.063
  0
CIRCLE
  5
121
330
18
100
AcDbEntity
  8
Holes
100
AcDbCircle
 10
102.4282
 20
45.6449
 30
0.0
 40
0.063
  0
CIRCLE
  5
122
330
18
100
AcDbEntity
  8
Holes
100
AcDbCircle
 10
102.9015
 20
45.4838
 30
0.0
 40
0.063
  0
CIRCLE
  5
123
330
18
100
AcDbEntity
  8
Holes
100
AcDbCircle
 10
102.7067
 20
45.0856
 30
0.0
 40
0.063
  0
CIRCLE
  5
124
330
18
100
AcDbEntity
  8
Holes
100
AcDbCircle
 10
102.4194
 20
44.7503
 30
0.0
 40
0.063
  0
CIRCLE
  5
125
330
18
100
AcDbEntity
  8
Holes
100
AcDbCircle
 10
102.0457
 20
44.4917
 30
0.0
 40
0.063
  0
CIRCLE
  5
126
330
18
100
AcDbEntity
  8
Holes
100
AcDbCircle
 10
101.6449
 20
44.3441
 30
0.0
 40
0.063
  0
LINE
  5
127
330
18
100
AcDbEntity
  8
Layout
100
AcDbLine
 10
101.245
 20
58.6571
 30
0.0
 11
103.745
 21
58.6571
 31
0.0
  0
LINE
  5
128
330
18
100
AcDbEntity
  8
Layout
100
AcDbLine
 10
98.745
 20
58.6571
 30
0.0
 11
101.245
 21
58.6571
 31
0.0
  0
ARC
  5
129
330
18
100
AcDbEntity
  8
Layout
100
AcDbCircle
 10
101.245
 20
46.1571
 30
0.0
 40
2.5
100
AcDbArc
 50
180.0
 51
0.0
  0
LINE
  5
12A
330
18
100
AcDbEntity
  8
Layout
100
AcDbLine
 10
98.745
 20
46.1571
 30
0.0
 11
98.745
 21
58.6571
 31
0.0
  0
LINE
  5
12B
330
18
100
AcDbEntity
  8
Layout
100
AcDbLine
 10
103.745
 20
46.1571
 30
0.0
 11
103.745
 21
58.6571
 31
0.0
  0
ENDSEC
  0
SECTION
  2
OBJECTS
  0
DICTIONARY
  5
C
330
0
100
AcDbDictionary
281
     1
  3
ACAD_GROUP
350
D
  3
ACAD_LAYOUT
350
12C
  3
ACAD_MLEADERSTYLE
350
155
  3
ACAD_MLINESTYLE
350
1B
  3
ACAD_SCALELIST
350
12F
  3
ACAD_TABLESTYLE
350
154
  3
AcDbVariableDictionary
350
151
  0
DICTIONARY
  5
D
102
{ACAD_REACTORS
330
C
102
}
330
C
100
AcDbDictionary
281
     1
  0
DICTIONARY
  5
12C
102
{ACAD_REACTORS
330
C
102
}
330
C
100
AcDbDictionary
281
     1
  3
Layout1
350
12E
  3
Model
350
12D
  0
DICTIONARY
  5
155
102
{ACAD_REACTORS
330
C
102
}
330
C
100
AcDbDictionary
281
     1
  0
DICTIONARY
  5
1B
102
{ACAD_REACTORS
330
C
102
}
330
C
100
AcDbDictionary
281
     1
  3
STANDARD
350
1C
  0
DICTIONARY
  5
12F
102
{ACAD_REACTORS
330
C
102
}
330
C
100
AcDbDictionary
281
     1
  3
A0
350
130
  3
A1
350
131
  3
A2
350
132
  3
A3
350
133
  3
A4
350
134
  3
A5
350
135
  3
A6
350
136
  3
A7
350
137
  3
A8
350
138
  3
A9
350
139
  3
B0
350
13A
  3
B1
350
13B
  3
B2
350
13C
  3
B3
350
13D
  3
B4
350
13E
  3
B5
350
13F
  3
B6
350
140
  3
B7
350
141
  3
B8
350
142
  3
B9
350
143
  3
C0
350
144
  3
C1
350
145
  3
C2
350
146
  3
C3
350
147
  3
C4
350
148
  3
C5
350
149
  3
C6
350
14A
  3
C7
350
14B
  3
C8
350
14C
  3
C9
350
14D
  3
D0
350
14E
  3
D1
350
14F
  3
D2
350
150
  0
DICTIONARY
  5
154
102
{ACAD_REACTORS
330
C
102
}
330
C
100
AcDbDictionary
281
     1
  0
DICTIONARY
  5
151
102
{ACAD_REACTORS
330
C
102
}
330
C
100
AcDbDictionary
281
     1
  3
CANNOSCALE
350
152
  3
LIGHTINGUNITS
350
153
  0
LAYOUT
  5
12E
102
{ACAD_REACTORS
330
12C
102
}
330
12C
100
AcDbPlotSettings
  1

  2
none_device
  4

  6

 40
0.0
 41
0.0
 42
0.0
 43
0.0
 44
0.0
 45
0.0
 46
0.0
 47
0.0
 48
0.0
 49
0.0
140
0.0
141
0.0
142
1.0
143
1.0
 70
   688
 72
     0
 73
     0
 74
     5
  7

 75
    16
 76
     0
 77
     2
 78
   300
147
1.0
148
0.0
149
0.0
100
AcDbLayout
  1
Layout1
 70
     1
 71
     1
 10
0.0
 20
0.0
 11
0.0
 21
0.0
 12
0.0
 22
0.0
 32
0.0
 14
0.0
 24
0.0
 34
0.0
 15
0.0
 25
0.0
 35
0.0
146
0.0
 13
0.0
 23
0.0
 33
0.0
 16
1.0
 26
0.0
 36
0.0
 17
0.0
 27
1.0
 37
0.0
 76
     0
330
15
  0
LAYOUT
  5
12D
102
{ACAD_REACTORS
330
12C
102
}
330
12C
100
AcDbPlotSettings
  1

  2
none_device
  4

  6

 40
0.0
 41
0.0
 42
0.0
 43
0.0
 44
0.0
 45
0.0
 46
0.0
 47
0.0
 48
0.0
 49
0.0
140
0.0
141
0.0
142
1.0
143
1.0
 70
   688
 72
     0
 73
     0
 74
     5
  7

 75
    16
 76
     0
 77
     2
 78
   300
147
1.0
148
0.0
149
0.0
100
AcDbLayout
  1
Model
 70
     1
 71
     0
 10
0.0
 20
0.0
 11
0.0
 21
0.0
 12
0.0
 22
0.0
 32
0.0
 14
0.0
 24
0.0
 34
0.0
 15
0.0
 25
0.0
 35
0.0
146
0.0
 13
0.0
 23
0.0
 33
0.0
 16
1.0
 26
0.0
 36
0.0
 17
0.0
 27
1.0
 37
0.0
 76
     0
330
18
331
1E
  0
MLINESTYLE
  5
1C
102
{ACAD_REACTORS
330
1B
102
}
330
1B
100
AcDbMlineStyle
  2
STANDARD
 70
     0
  3

 62
   256
 51
90.0
 52
90.0
 71
     2
 49
0.5
 62
   256
  6
BYLAYER
 49
-0.5
 62
   256
  6
BYLAYER
  0
SCALE
  5
130
102
{ACAD_REACTORS
330
12F
102
}
330
12F
100
AcDbScale
 70
     0
300
1:1
140
1.0
141
1.0
290
     1
  0
SCALE
  5
131
102
{ACAD_REACTORS
330
12F
102
}
330
12F
100
AcDbScale
 70
     0
300
1:2
140
1.0
141
2.0
290
     0
  0
SCALE
  5
132
102
{ACAD_REACTORS
330
12F
102
}
330
12F
100
AcDbScale
 70
     0
300
1:4
140
1.0
141
4.0
290
     0
  0
SCALE
  5
133
102
{ACAD_REACTORS
330
12F
102
}
330
12F
100
AcDbScale
 70
     0
300
1:5
140
1.0
141
5.0
290
     0
  0
SCALE
  5
134
102
{ACAD_REACTORS
330
12F
102
}
330
12F
100
AcDbScale
 70
     0
300
1:8
140
1.0
141
8.0
290
     0
  0
SCALE
  5
135
102
{ACAD_REACTORS
330
12F
102
}
330
12F
100
AcDbScale
 70
     0
300
1:10
140
1.0
141
10.0
290
     0
  0
SCALE
  5
136
102
{ACAD_REACTORS
330
12F
102
}
330
12F
100
AcDbScale
 70
     0
300
1:16
140
1.0
141
16.0
290
     0
  0
SCALE
  5
137
102
{ACAD_REACTORS
330
12F
102
}
330
12F
100
AcDbScale
 70
     0
300
1:20
140
1.0
141
20.0
290
     0
  0
SCALE
  5
138
102
{ACAD_REACTORS
330
12F
102
}
330
12F
100
AcDbScale
 70
     0
300
1:30
140
1.0
141
30.0
290
     0
  0
SCALE
  5
139
102
{ACAD_REACTORS
330
12F
102
}
330
12F
100
AcDbScale
 70
     0
300
1:40
140
1.0
141
40.0
290
     0
  0
SCALE
  5
13A
102
{ACAD_REACTORS
330
12F
102
}
330
12F
100
AcDbScale
 70
     0
300
1:50
140
1.0
141
50.0
290
     0
  0
SCALE
  5
13B
102
{ACAD_REACTORS
330
12F
102
}
330
12F
100
AcDbScale
 70
     0
300
1:100
140
1.0
141
100.0
290
     0
  0
SCALE
  5
13C
102
{ACAD_REACTORS
330
12F
102
}
330
12F
100
AcDbScale
 70
     0
300
2:1
140
2.0
141
1.0
290
     0
  0
SCALE
  5
13D
102
{ACAD_REACTORS
330
12F
102
}
330
12F
100
AcDbScale
 70
     0
300
4:1
140
4.0
141
1.0
290
     0
  0
SCALE
  5
13E
102
{ACAD_REACTORS
330
12F
102
}
330
12F
100
AcDbScale
 70
     0
300
8:1
140
8.0
141
1.0
290
     0
  0
SCALE
  5
13F
102
{ACAD_REACTORS
330
12F
102
}
330
12F
100
AcDbScale
 70
     0
300
10:1
140
10.0
141
1.0
290
     0
  0
SCALE
  5
140
102
{ACAD_REACTORS
330
12F
102
}
330
12F
100
AcDbScale
 70
     0
300
100:1
140
100.0
141
1.0
290
     0
  0
SCALE
  5
141
102
{ACAD_REACTORS
330
12F
102
}
330
12F
100
AcDbScale
 70
     0
300
1/128" = 1'-0"
140
0.0078125
141
12.0
290
     0
  0
SCALE
  5
142
102
{ACAD_REACTORS
330
12F
102
}
330
12F
100
AcDbScale
 70
     0
300
1/64" = 1'-0"
140
0.015625
141
12.0
290
     0
  0
SCALE
  5
143
102
{ACAD_REACTORS
330
12F
102
}
330
12F
100
AcDbScale
 70
     0
300
1/32" = 1'-0"
140
0.03125
141
12.0
290
     0
  0
SCALE
  5
144
102
{ACAD_REACTORS
330
12F
102
}
330
12F
100
AcDbScale
 70
     0
300
1/16" = 1'-0"
140
0.0625
141
12.0
290
     0
  0
SCALE
  5
145
102
{ACAD_REACTORS
330
12F
102
}
330
12F
100
AcDbScale
 70
     0
300
3/32" = 1'-0"
140
0.09375
141
12.0
290
     0
  0
SCALE
  5
146
102
{ACAD_REACTORS
330
12F
102
}
330
12F
100
AcDbScale
 70
     0
300
1/8" = 1'-0"
140
0.125
141
12.0
290
     0
  0
SCALE
  5
147
102
{ACAD_REACTORS
330
12F
102
}
330
12F
100
AcDbScale
 70
     0
300
3/16" = 1'-0"
140
0.1875
141
12.0
290
     0
  0
SCALE
  5
148
102
{ACAD_REACTORS
330
12F
102
}
330
12F
100
AcDbScale
 70
     0
300
1/4" = 1'-0"
140
0.25
141
12.0
290
     0
  0
SCALE
  5
149
102
{ACAD_REACTORS
330
12F
102
}
330
12F
100
AcDbScale
 70
     0
300
3/8" = 1'-0"
140
0.375
141
12.0
290
     0
  0
SCALE
  5
14A
102
{ACAD_REACTORS
330
12F
102
}
330
12F
100
AcDbScale
 70
     0
300
1/2" = 1'-0"
140
0.5
141
12.0
290
     0
  0
SCALE
  5
14B
102
{ACAD_REACTORS
330
12F
102
}
330
12F
100
AcDbScale
 70
     0
300
3/4" = 1'-0"
140
0.75
141
12.0
290
     0
  0
SCALE
  5
14C
102
{ACAD_REACTORS
330
12F
102
}
330
12F
100
AcDbScale
 70
     0
300
1" = 1'-0"
140
1.0
141
12.0
290
     0
  0
SCALE
  5
14D
102
{ACAD_REACTORS
330
12F
102
}
330
12F
100
AcDbScale
 70
     0
300
1-1/2" = 1'-0"
140
1.5
141
12.0
290
     0
  0
SCALE
  5
14E
102
{ACAD_REACTORS
330
12F
102
}
330
12F
100
AcDbScale
 70
     0
300
3" = 1'-0"
140
3.0
141
12.0
290
     0
  0
SCALE
  5
14F
102
{ACAD_REACTORS
330
12F
102
}
330
12F
100
AcDbScale
 70
     0
300
6" = 1'-0"
140
6.0
141
12.0
290
     0
  0
SCALE
  5
150
102
{ACAD_REACTORS
330
12F
102
}
330
12F
100
AcDbScale
 70
     0
300
1'-0" = 1'-0"
140
12.0
141
12.0
290
     0
  0
DICTIONARYVAR
  5
152
102
{ACAD_REACTORS
330
151
102
}
330
151
100
DictionaryVariables
280
     0
  1
1:1
  0
DICTIONARYVAR
  5
153
102
{ACAD_REACTORS
330
151
102
}
330
151
100
DictionaryVariables
280
     0
  1
0
  0
ENDSEC
  0
EOF
