  0
SECTION
  2
HEADER
  9
$ACADVER
  1
AC1009
  9
$DWGCODEPAGE
  3
ansi_1252
  9
$INSBASE
 10
0.0
 20
0.0
 30
0.0
  9
$EXTMIN
 10
-0.6176
 20
-1.7019
 30
0.0
  9
$EXTMAX
 10
14.2988
 20
5.9714
 30
0.0
  9
$LIMMIN
 10
-0.6176
 20
-1.7209
  9
$LIMMAX
 10
14.2532
 20
5.9714
  9
$ORTHOMODE
 70
     0
  9
$REGENMODE
 70
     1
  9
$FILLMODE
 70
     1
  9
$QTEXTMODE
 70
     0
  9
$MIRRTEXT
 70
     1
  9
$DRAGMODE
 70
     2
  9
$LTSCALE
 40
1.0
  9
$OSMODE
 70
    37
  9
$ATTMODE
 70
     1
  9
$TEXTSIZE
 40
0.2
  9
$TRACEWID
 40
0.05
  9
$TEXTSTYLE
  7
STANDARD
  9
$CLAYER
  8
0
  9
$CELTYPE
  6
BYBLOCK
  9
$CECOLOR
 62
   256
  9
$DIMSCALE
 40
1.0
  9
$DIMASZ
 40
0.18
  9
$DIMEXO
 40
0.0625
  9
$DIMDLI
 40
0.38
  9
$DIMRND
 40
0.0
  9
$DIMDLE
 40
0.0
  9
$DIMEXE
 40
0.18
  9
$DIMTP
 40
0.0
  9
$DIMTM
 40
0.0
  9
$DIMTXT
 40
0.18
  9
$DIMCEN
 40
0.09
  9
$DIMTSZ
 40
0.0
  9
$DIMTOL
 70
     0
  9
$DIMLIM
 70
     0
  9
$DIMTIH
 70
     1
  9
$DIMTOH
 70
     1
  9
$DIMSE1
 70
     0
  9
$DIMSE2
 70
     0
  9
$DIMTAD
 70
     0
  9
$DIMZIN
 70
     0
  9
$DIMBLK
  1

  9
$DIMASO
 70
     1
  9
$DIMSHO
 70
     1
  9
$DIMPOST
  1

  9
$DIMAPOST
  1

  9
$DIMALT
 70
     0
  9
$DIMALTD
 70
     2
  9
$DIMALTF
 40
25.4
  9
$DIMLFAC
 40
1.0
  9
$DIMTOFL
 70
     0
  9
$DIMTVP
 40
0.0
  9
$DIMTIX
 70
     0
  9
$DIMSOXD
 70
     0
  9
$DIMSAH
 70
     0
  9
$DIMBLK1
  1

  9
$DIMBLK2
  1

  9
$DIMSTYLE
  2
STANDARD
  9
$DIMCLRD
 70
     0
  9
$DIMCLRE
 70
     0
  9
$DIMCLRT
 70
     0
  9
$DIMTFAC
 40
1.0
  9
$DIMGAP
 40
0.09
  9
$LUNITS
 70
     2
  9
$LUPREC
 70
     4
  9
$SKETCHINC
 40
0.1
  9
$FILLETRAD
 40
0.5
  9
$AUNITS
 70
     0
  9
$AUPREC
 70
     0
  9
$MENU
  1
.
  9
$ELEVATION
 40
0.0
  9
$PELEVATION
 40
0.0
  9
$THICKNESS
 40
0.0
  9
$LIMCHECK
 70
     0
  9
$CHAMFERA
 40
0.5
  9
$CHAMFERB
 40
0.5
  9
$SKPOLY
 70
     0
  9
$TDCREATE
 40
2454875.75488
  9
$TDUPDATE
 40
2454875.75488
  9
$TDINDWG
 40
0.0
  9
$TDUSRTIMER
 40
0.0
  9
$USRTIMER
 70
     1
  9
$ANGBASE
 50
0.0
  9
$ANGDIR
 70
     0
  9
$PDMODE
 70
     0
  9
$PDSIZE
 40
0.0
  9
$PLINEWID
 40
0.0
  9
$COORDS
 70
     1
  9
$SPLFRAME
 70
     0
  9
$SPLINETYPE
 70
     6
  9
$SPLINESEGS
 70
     8
  9
$ATTDIA
 70
     0
  9
$ATTREQ
 70
     1
  9
$HANDLING
 70
     1
  9
$HANDSEED
  5
1EE
  9
$SURFTAB1
 70
     6
  9
$SURFTAB2
 70
     6
  9
$SURFTYPE
 70
     6
  9
$SURFU
 70
     6
  9
$SURFV
 70
     6
  9
$UCSNAME
  2

  9
$UCSORG
 10
0.0
 20
0.0
 30
0.0
  9
$UCSXDIR
 10
1.0
 20
0.0
 30
0.0
  9
$UCSYDIR
 10
0.0
 20
1.0
 30
0.0
  9
$PUCSNAME
  2

  9
$PUCSORG
 10
0.0
 20
0.0
 30
0.0
  9
$PUCSXDIR
 10
1.0
 20
0.0
 30
0.0
  9
$PUCSYDIR
 10
0.0
 20
1.0
 30
0.0
  9
$USERI1
 70
     0
  9
$USERI2
 70
     0
  9
$USERI3
 70
     0
  9
$USERI4
 70
     0
  9
$USERI5
 70
     0
  9
$USERR1
 40
0.0
  9
$USERR2
 40
0.0
  9
$USERR3
 40
0.0
  9
$USERR4
 40
0.0
  9
$USERR5
 40
0.0
  9
$WORLDVIEW
 70
     1
  9
$SHADEDGE
 70
     3
  9
$SHADEDIF
 70
    70
  9
$TILEMODE
 70
     1
  9
$MAXACTVP
 70
    64
  9
$PLIMCHECK
 70
     0
  9
$PEXTMIN
 10
1.000000000000000E+20
 20
1.000000000000000E+20
 30
1.000000000000000E+20
  9
$PEXTMAX
 10
-1.000000000000000E+20
 20
-1.000000000000000E+20
 30
-1.000000000000000E+20
  9
$PLIMMIN
 10
0.0
 20
0.0
  9
$PLIMMAX
 10
12.0
 20
9.0
  9
$UNITMODE
 70
     0
  9
$VISRETAIN
 70
     1
  9
$PLINEGEN
 70
     0
  9
$PSLTSCALE
 70
     1
  0
ENDSEC
  0
SECTION
  2
TABLES
  0
TABLE
  2
VPORT
 70
     1
  0
VPORT
  2
*ACTIVE
 70
     0
 10
0.0
 20
0.0
 11
1.0
 21
1.0
 12
6.8406
 22
2.13475
 13
0.0
 23
0.0
 14
0.5
 24
0.5
 15
0.5
 25
0.5
 16
0.0
 26
0.0
 36
1.0
 17
0.0
 27
0.0
 37
0.0
 40
9.022863570149253
 41
1.972972972850329
 42
50.0
 43
0.0
 44
0.0
 50
0.0
 51
0.0
 71
    16
 72
   100
 73
     1
 74
     1
 75
     0
 76
     0
 77
     0
 78
     0
  0
ENDTAB
  0
TABLE
  2
LTYPE
 70
     1
  0
LTYPE
  2
CONTINUOUS
 70
     0
  3
Solid line
 72
    65
 73
     0
 40
0.0
  0
ENDTAB
  0
TABLE
  2
LAYER
 70
     3
  0
LAYER
  2
0
 70
     0
 62
     7
  6
CONTINUOUS
  0
LAYER
  2
DEFAULT
 70
     0
 62
     7
  6
CONTINUOUS
  0
LAYER
  2
DEFPOINTS
 70
     0
 62
     7
  6
CONTINUOUS
  0
ENDTAB
  0
TABLE
  2
STYLE
 70
     1
  0
STYLE
  2
STANDARD
 70
     0
 40
0.0
 41
1.0
 50
0.0
 71
     0
 42
0.2
  3
txt
  4

  0
ENDTAB
  0
TABLE
  2
VIEW
 70
     0
  0
ENDTAB
  0
TABLE
  2
UCS
 70
     0
  0
ENDTAB
  0
TABLE
  2
APPID
 70
     1
  0
APPID
  2
ACAD
 70
     0
  0
ENDTAB
  0
TABLE
  2
DIMSTYLE
 70
     1
  0
DIMSTYLE
  2
STANDARD
 70
     0
  3

  4

  5

  6

  7

 40
1.0
 41
0.18
 42
0.0625
 43
0.38
 44
0.18
 45
0.0
 46
0.0
 47
0.0
 48
0.0
140
0.18
141
0.09
142
0.0
143
25.4
144
1.0
145
0.0
146
1.0
147
0.09
 71
     0
 72
     0
 73
     1
 74
     1
 75
     0
 76
     0
 77
     0
 78
     0
170
     0
171
     2
172
     0
173
     0
174
     0
175
     0
176
     0
177
     0
178
     0
  0
ENDTAB
  0
ENDSEC
  0
SECTION
  2
BLOCKS
  0
BLOCK
  8
0
  2
$MODEL_SPACE
 70
     0
 10
0.0
 20
0.0
 30
0.0
  3
$MODEL_SPACE
  1

  0
ENDBLK
  5
21
  8
0
  0
BLOCK
 67
     1
  8
0
  2
$PAPER_SPACE
 70
     0
 10
0.0
 20
0.0
 30
0.0
  3
$PAPER_SPACE
  1

  0
ENDBLK
  5
76
 67
     1
  8
0
  0
ENDSEC
  0
SECTION
  2
ENTITIES
  0
CIRCLE
  5
1D9
  8
DEFAULT
 10
3.1896
 20
1.7485
 30
0.0
 40
0.0625
  0
CIRCLE
  5
28
  8
DEFAULT
 10
3.4396
 20
1.7485
 30
0.0
 40
0.0625
  0
CIRCLE
  5
29
  8
DEFAULT
 10
11.4396
 20
1.7485
 30
0.0
 40
0.0625
  0
CIRCLE
  5
2A
  8
DEFAULT
 10
11.6896
 20
1.7485
 30
0.0
 40
0.0625
  0
CIRCLE
  5
2B
  8
DEFAULT
 10
3.6896
 20
2.2485
 30
0.0
 40
0.0625
  0
CIRCLE
  5
2C
  8
DEFAULT
 10
3.4396
 20
2.2485
 30
0.0
 40
0.0625
  0
CIRCLE
  5
2D
  8
DEFAULT
 10
3.1896
 20
2.2485
 30
0.0
 40
0.0625
  0
CIRCLE
  5
2E
  8
DEFAULT
 10
3.9396
 20
2.2485
 30
0.0
 40
0.0625
  0
CIRCLE
  5
2F
  8
DEFAULT
 10
4.1896
 20
2.2485
 30
0.0
 40
0.0625
  0
CIRCLE
  5
30
  8
DEFAULT
 10
4.9396
 20
2.2485
 30
0.0
 40
0.0625
  0
CIRCLE
  5
31
  8
DEFAULT
 10
5.1896
 20
2.2485
 30
0.0
 40
0.0625
  0
CIRCLE
  5
32
  8
DEFAULT
 10
5.4396
 20
2.2485
 30
0.0
 40
0.0625
  0
CIRCLE
  5
33
  8
DEFAULT
 10
5.6896
 20
2.2485
 30
0.0
 40
0.0625
  0
CIRCLE
  5
34
  8
DEFAULT
 10
6.1896
 20
2.2485
 30
0.0
 40
0.0625
  0
CIRCLE
  5
35
  8
DEFAULT
 10
6.4396
 20
2.2485
 30
0.0
 40
0.0625
  0
CIRCLE
  5
36
  8
DEFAULT
 10
6.6896
 20
2.2485
 30
0.0
 40
0.0625
  0
CIRCLE
  5
37
  8
DEFAULT
 10
6.9396
 20
2.2485
 30
0.0
 40
0.0625
  0
CIRCLE
  5
38
  8
DEFAULT
 10
7.1896
 20
2.2485
 30
0.0
 40
0.0625
  0
CIRCLE
  5
39
  8
DEFAULT
 10
7.6896
 20
2.2485
 30
0.0
 40
0.0625
  0
CIRCLE
  5
3A
  8
DEFAULT
 10
7.9396
 20
2.2485
 30
0.0
 40
0.0625
  0
CIRCLE
  5
3B
  8
DEFAULT
 10
8.1896
 20
2.2485
 30
0.0
 40
0.0625
  0
CIRCLE
  5
3C
  8
DEFAULT
 10
8.4396
 20
2.2485
 30
0.0
 40
0.0625
  0
CIRCLE
  5
3D
  8
DEFAULT
 10
8.6896
 20
2.2485
 30
0.0
 40
0.0625
  0
CIRCLE
  5
3E
  8
DEFAULT
 10
9.1896
 20
2.2485
 30
0.0
 40
0.0625
  0
CIRCLE
  5
3F
  8
DEFAULT
 10
9.4396
 20
2.2485
 30
0.0
 40
0.0625
  0
CIRCLE
  5
40
  8
DEFAULT
 10
9.6896
 20
2.2485
 30
0.0
 40
0.0625
  0
CIRCLE
  5
41
  8
DEFAULT
 10
9.9396
 20
2.2485
 30
0.0
 40
0.0625
  0
CIRCLE
  5
42
  8
DEFAULT
 10
10.1896
 20
2.2485
 30
0.0
 40
0.0625
  0
CIRCLE
  5
43
  8
DEFAULT
 10
10.6896
 20
2.2485
 30
0.0
 40
0.0625
  0
CIRCLE
  5
44
  8
DEFAULT
 10
10.9396
 20
2.2485
 30
0.0
 40
0.0625
  0
CIRCLE
  5
45
  8
DEFAULT
 10
11.4396
 20
2.2485
 30
0.0
 40
0.0625
  0
CIRCLE
  5
46
  8
DEFAULT
 10
11.6896
 20
2.2485
 30
0.0
 40
0.0625
  0
CIRCLE
  5
47
  8
DEFAULT
 10
4.6896
 20
2.2485
 30
0.0
 40
0.0625
  0
CIRCLE
  5
48
  8
0
 10
11.1896
 20
2.2485
 30
0.0
 40
0.0625
  0
LINE
  5
49
  8
0
 10
11.6891
 20
2.7636
 30
0.0
 11
11.6891
 21
2.7636
 31
0.0
  0
LINE
  5
4A
  8
0
 10
11.6891
 20
2.7636
 30
0.0
 11
11.6891
 21
2.7636
 31
0.0
  0
CIRCLE
  5
4B
  8
0
 10
3.1895
 20
2.7485
 30
0.0
 40
0.0625
  0
CIRCLE
  5
4C
  8
0
 10
11.6895
 20
2.7485
 30
0.0
 40
0.0625
  0
CIRCLE
  5
4D
  8
0
 10
11.4396
 20
2.7485
 30
0.0
 40
0.0625
  0
CIRCLE
  5
4E
  8
0
 10
11.1896
 20
2.7485
 30
0.0
 40
0.0625
  0
CIRCLE
  5
4F
  8
0
 10
10.9396
 20
2.7485
 30
0.0
 40
0.0625
  0
CIRCLE
  5
50
  8
0
 10
10.6896
 20
2.7485
 30
0.0
 40
0.0625
  0
CIRCLE
  5
51
  8
0
 10
10.1896
 20
2.7485
 30
0.0
 40
0.0625
  0
CIRCLE
  5
52
  8
0
 10
9.9396
 20
2.7485
 30
0.0
 40
0.0625
  0
CIRCLE
  5
53
  8
0
 10
9.6896
 20
2.7485
 30
0.0
 40
0.0625
  0
CIRCLE
  5
54
  8
0
 10
9.4396
 20
2.7485
 30
0.0
 40
0.0625
  0
CIRCLE
  5
55
  8
0
 10
9.1896
 20
2.7485
 30
0.0
 40
0.0625
  0
CIRCLE
  5
56
  8
0
 10
8.6896
 20
2.7485
 30
0.0
 40
0.0625
  0
CIRCLE
  5
57
  8
0
 10
8.4396
 20
2.7485
 30
0.0
 40
0.0625
  0
CIRCLE
  5
58
  8
0
 10
8.1896
 20
2.7485
 30
0.0
 40
0.0625
  0
CIRCLE
  5
1DA
  8
0
 10
7.9396
 20
2.7485
 30
0.0
 40
0.0625
  0
CIRCLE
  5
1DB
  8
0
 10
7.6896
 20
2.7485
 30
0.0
 40
0.0625
  0
CIRCLE
  5
5B
  8
0
 10
7.1896
 20
2.7485
 30
0.0
 40
0.0625
  0
CIRCLE
  5
5C
  8
0
 10
6.6896
 20
2.7485
 30
0.0
 40
0.0625
  0
CIRCLE
  5
5D
  8
0
 10
6.4396
 20
2.7485
 30
0.0
 40
0.0625
  0
CIRCLE
  5
1DC
  8
0
 10
6.1896
 20
2.7485
 30
0.0
 40
0.0625
  0
CIRCLE
  5
5F
  8
0
 10
5.6896
 20
2.7485
 30
0.0
 40
0.0625
  0
CIRCLE
  5
60
  8
0
 10
5.4396
 20
2.7485
 30
0.0
 40
0.0625
  0
CIRCLE
  5
61
  8
0
 10
5.1896
 20
2.7485
 30
0.0
 40
0.0625
  0
CIRCLE
  5
62
  8
0
 10
4.9396
 20
2.7485
 30
0.0
 40
0.0625
  0
CIRCLE
  5
63
  8
0
 10
4.6896
 20
2.7485
 30
0.0
 40
0.0625
  0
CIRCLE
  5
64
  8
0
 10
4.1896
 20
2.7485
 30
0.0
 40
0.0625
  0
CIRCLE
  5
65
  8
0
 10
3.9396
 20
2.7485
 30
0.0
 40
0.0625
  0
CIRCLE
  5
66
  8
0
 10
3.4396
 20
2.7485
 30
0.0
 40
0.0625
  0
CIRCLE
  5
67
  8
0
 10
3.6896
 20
2.7485
 30
0.0
 40
0.0625
  0
CIRCLE
  5
68
  8
0
 10
6.9396
 20
2.7485
 30
0.0
 40
0.0625
  0
CIRCLE
  5
69
  8
DEFAULT
 10
3.6896
 20
1.2485
 30
0.0
 40
0.0625
  0
CIRCLE
  5
6A
  8
DEFAULT
 10
3.1896
 20
1.2485
 30
0.0
 40
0.0625
  0
CIRCLE
  5
1DD
  8
DEFAULT
 10
3.4396
 20
1.2485
 30
0.0
 40
0.0625
  0
CIRCLE
  5
1DE
  8
DEFAULT
 10
3.9396
 20
1.2485
 30
0.0
 40
0.0625
  0
CIRCLE
  5
6D
  8
DEFAULT
 10
4.1896
 20
1.2485
 30
0.0
 40
0.0625
  0
CIRCLE
  5
6E
  8
DEFAULT
 10
4.6896
 20
1.2485
 30
0.0
 40
0.0625
  0
CIRCLE
  5
6F
  8
DEFAULT
 10
4.9396
 20
1.2485
 30
0.0
 40
0.0625
  0
CIRCLE
  5
70
  8
DEFAULT
 10
5.1896
 20
1.2485
 30
0.0
 40
0.0625
  0
CIRCLE
  5
71
  8
DEFAULT
 10
5.4396
 20
1.2485
 30
0.0
 40
0.0625
  0
CIRCLE
  5
72
  8
DEFAULT
 10
5.6896
 20
1.2485
 30
0.0
 40
0.0625
  0
CIRCLE
  5
1DF
  8
DEFAULT
 10
6.1896
 20
1.2485
 30
0.0
 40
0.0625
  0
CIRCLE
  5
1E0
  8
DEFAULT
 10
6.4396
 20
1.2485
 30
0.0
 40
0.0625
  0
CIRCLE
  5
1E1
  8
DEFAULT
 10
6.6896
 20
1.2485
 30
0.0
 40
0.0625
  0
CIRCLE
  5
1E2
  8
DEFAULT
 10
6.9396
 20
1.2485
 30
0.0
 40
0.0625
  0
CIRCLE
  5
77
  8
DEFAULT
 10
7.1896
 20
1.2485
 30
0.0
 40
0.0625
  0
CIRCLE
  5
78
  8
DEFAULT
 10
7.6896
 20
1.2485
 30
0.0
 40
0.0625
  0
CIRCLE
  5
79
  8
DEFAULT
 10
8.1896
 20
1.2485
 30
0.0
 40
0.0625
  0
CIRCLE
  5
7A
  8
DEFAULT
 10
8.4396
 20
1.2485
 30
0.0
 40
0.0625
  0
CIRCLE
  5
7B
  8
DEFAULT
 10
8.6896
 20
1.2485
 30
0.0
 40
0.0625
  0
CIRCLE
  5
7C
  8
DEFAULT
 10
9.1896
 20
1.2485
 30
0.0
 40
0.0625
  0
CIRCLE
  5
7D
  8
DEFAULT
 10
9.4396
 20
1.2485
 30
0.0
 40
0.0625
  0
CIRCLE
  5
7E
  8
DEFAULT
 10
9.6896
 20
1.2485
 30
0.0
 40
0.0625
  0
CIRCLE
  5
7F
  8
DEFAULT
 10
9.9396
 20
1.2485
 30
0.0
 40
0.0625
  0
CIRCLE
  5
80
  8
DEFAULT
 10
10.1896
 20
1.2485
 30
0.0
 40
0.0625
  0
CIRCLE
  5
81
  8
DEFAULT
 10
10.6896
 20
1.2485
 30
0.0
 40
0.0625
  0
CIRCLE
  5
82
  8
DEFAULT
 10
10.9396
 20
1.2485
 30
0.0
 40
0.0625
  0
CIRCLE
  5
83
  8
DEFAULT
 10
11.1896
 20
1.2485
 30
0.0
 40
0.0625
  0
CIRCLE
  5
84
  8
DEFAULT
 10
11.4396
 20
1.2485
 30
0.0
 40
0.0625
  0
CIRCLE
  5
85
  8
DEFAULT
 10
11.6896
 20
1.2485
 30
0.0
 40
0.0625
  0
CIRCLE
  5
86
  8
DEFAULT
 10
7.9396
 20
1.2485
 30
0.0
 40
0.0625
  0
LINE
  5
87
  8
0
 10
3.1896
 20
0.8485
 30
0.0
 11
3.1896
 21
0.8485
 31
0.0
  0
CIRCLE
  5
88
  8
0
 10
3.1896
 20
0.7485000000000001
 30
0.0
 40
0.0625
  0
CIRCLE
  5
89
  8
0
 10
11.6896
 20
0.7485000000000001
 30
0.0
 40
0.0625
  0
CIRCLE
  5
8A
  8
0
 10
3.4396
 20
0.7485000000000001
 30
0.0
 40
0.0625
  0
CIRCLE
  5
8B
  8
0
 10
3.9396
 20
0.7485000000000001
 30
0.0
 40
0.0625
  0
CIRCLE
  5
8C
  8
0
 10
4.1896
 20
0.7485000000000001
 30
0.0
 40
0.0625
  0
CIRCLE
  5
8D
  8
0
 10
4.6896
 20
0.7485000000000001
 30
0.0
 40
0.0625
  0
CIRCLE
  5
8E
  8
0
 10
4.9396
 20
0.7485000000000001
 30
0.0
 40
0.0625
  0
CIRCLE
  5
8F
  8
0
 10
5.1896
 20
0.7485000000000001
 30
0.0
 40
0.0625
  0
CIRCLE
  5
90
  8
0
 10
5.4396
 20
0.7485000000000001
 30
0.0
 40
0.0625
  0
CIRCLE
  5
91
  8
0
 10
5.6896
 20
0.7485000000000001
 30
0.0
 40
0.0625
  0
CIRCLE
  5
1E3
  8
0
 10
6.1896
 20
0.7485000000000001
 30
0.0
 40
0.0625
  0
CIRCLE
  5
1E4
  8
0
 10
6.4396
 20
0.7485000000000001
 30
0.0
 40
0.0625
  0
CIRCLE
  5
94
  8
0
 10
6.6896
 20
0.7485000000000001
 30
0.0
 40
0.0625
  0
CIRCLE
  5
95
  8
0
 10
6.9396
 20
0.7485000000000001
 30
0.0
 40
0.0625
  0
CIRCLE
  5
96
  8
0
 10
7.1896
 20
0.7485000000000001
 30
0.0
 40
0.0625
  0
CIRCLE
  5
1E5
  8
0
 10
7.6896
 20
0.7485000000000001
 30
0.0
 40
0.0625
  0
CIRCLE
  5
1E6
  8
0
 10
7.9396
 20
0.7485000000000001
 30
0.0
 40
0.0625
  0
CIRCLE
  5
99
  8
0
 10
8.1896
 20
0.7485000000000001
 30
0.0
 40
0.0625
  0
CIRCLE
  5
9A
  8
0
 10
8.4396
 20
0.7485000000000001
 30
0.0
 40
0.0625
  0
CIRCLE
  5
9B
  8
0
 10
8.6896
 20
0.7485000000000001
 30
0.0
 40
0.0625
  0
CIRCLE
  5
9C
  8
0
 10
9.1896
 20
0.7485000000000001
 30
0.0
 40
0.0625
  0
CIRCLE
  5
9D
  8
0
 10
9.4396
 20
0.7485000000000001
 30
0.0
 40
0.0625
  0
CIRCLE
  5
9E
  8
0
 10
9.6896
 20
0.7485000000000001
 30
0.0
 40
0.0625
  0
CIRCLE
  5
9F
  8
0
 10
9.9396
 20
0.7485000000000001
 30
0.0
 40
0.0625
  0
CIRCLE
  5
A0
  8
0
 10
10.1896
 20
0.7485000000000001
 30
0.0
 40
0.0625
  0
CIRCLE
  5
A1
  8
0
 10
10.6896
 20
0.7485000000000001
 30
0.0
 40
0.0625
  0
CIRCLE
  5
A2
  8
0
 10
10.9396
 20
0.7485000000000001
 30
0.0
 40
0.0625
  0
CIRCLE
  5
A3
  8
0
 10
11.1896
 20
0.7485000000000001
 30
0.0
 40
0.0625
  0
CIRCLE
  5
A4
  8
0
 10
11.4396
 20
0.7485000000000001
 30
0.0
 40
0.0625
  0
CIRCLE
  5
A5
  8
0
 10
3.6896
 20
0.7485000000000001
 30
0.0
 40
0.0625
  0
LINE
  5
A6
  8
0
 10
6.6451
 20
0.0092
 30
0.0
 11
6.6451
 21
0.0092
 31
0.0
  0
LINE
  5
A7
  8
0
 10
6.6451
 20
0.0092
 30
0.0
 11
6.6451
 21
0.0092
 31
0.0
  0
LINE
  5
A8
  8
0
 10
6.6451
 20
0.0092
 30
0.0
 11
6.6451
 21
0.0092
 31
0.0
  0
LINE
  5
A9
  8
0
 10
6.6451
 20
0.0092
 30
0.0
 11
6.6451
 21
0.0092
 31
0.0
  0
LINE
  5
AA
  8
0
 10
6.4058
 20
0.0092
 30
0.0
 11
6.4058
 21
-0.005
 31
0.0
  0
LINE
  5
AB
  8
0
 10
6.4058
 20
0.0092
 30
0.0
 11
6.4058
 21
-0.005
 31
0.0
  0
LINE
  5
AC
  8
0
 10
6.4058
 20
0.0092
 30
0.0
 11
6.4058
 21
0.0092
 31
0.0
  0
LINE
  5
AD
  8
0
 10
6.4058
 20
-0.005
 30
0.0
 11
6.4058
 21
-0.005
 31
0.0
  0
POINT
  5
AE
  8
0
 62
     1
 10
3.1895
 20
2.7485
 30
0.0
  0
POINT
  5
AF
  8
0
 62
     1
 10
3.4396
 20
2.7485
 30
0.0
  0
POINT
  5
B0
  8
0
 62
     1
 10
3.6896
 20
2.7485
 30
0.0
  0
POINT
  5
B1
  8
0
 62
     1
 10
3.9396
 20
2.7485
 30
0.0
  0
POINT
  5
B2
  8
0
 62
     1
 10
4.1896
 20
2.7485
 30
0.0
  0
POINT
  5
B3
  8
0
 62
     1
 10
4.6896
 20
2.7485
 30
0.0
  0
POINT
  5
B4
  8
0
 62
     1
 10
4.9396
 20
2.7485
 30
0.0
  0
POINT
  5
B5
  8
0
 62
     1
 10
5.1896
 20
2.7485
 30
0.0
  0
POINT
  5
B6
  8
0
 62
     1
 10
5.4396
 20
2.7485
 30
0.0
  0
POINT
  5
B7
  8
0
 62
     1
 10
5.6896
 20
2.7485
 30
0.0
  0
POINT
  5
B8
  8
0
 62
     1
 10
6.1896
 20
2.7485
 30
0.0
  0
POINT
  5
B9
  8
0
 62
     1
 10
6.4396
 20
2.7485
 30
0.0
  0
POINT
  5
BA
  8
0
 62
     1
 10
6.6896
 20
2.7485
 30
0.0
  0
POINT
  5
BB
  8
0
 62
     1
 10
6.9396
 20
2.7485
 30
0.0
  0
POINT
  5
BC
  8
0
 62
     1
 10
7.1896
 20
2.7485
 30
0.0
  0
POINT
  5
BD
  8
0
 62
     1
 10
7.6896
 20
2.7485
 30
0.0
  0
POINT
  5
BE
  8
0
 62
     1
 10
7.9396
 20
2.7485
 30
0.0
  0
POINT
  5
BF
  8
0
 62
     1
 10
8.1896
 20
2.7485
 30
0.0
  0
POINT
  5
C0
  8
0
 62
     1
 10
8.4396
 20
2.7485
 30
0.0
  0
POINT
  5
C1
  8
0
 62
     1
 10
8.6896
 20
2.7485
 30
0.0
  0
POINT
  5
C2
  8
0
 62
     1
 10
9.1896
 20
2.7485
 30
0.0
  0
POINT
  5
C3
  8
0
 62
     1
 10
9.4396
 20
2.7485
 30
0.0
  0
POINT
  5
C4
  8
0
 62
     1
 10
9.6896
 20
2.7485
 30
0.0
  0
POINT
  5
C5
  8
0
 62
     1
 10
9.9396
 20
2.7485
 30
0.0
  0
POINT
  5
C6
  8
0
 62
     1
 10
10.1896
 20
2.7485
 30
0.0
  0
POINT
  5
C7
  8
0
 62
     1
 10
10.6896
 20
2.7485
 30
0.0
  0
POINT
  5
C8
  8
0
 62
     1
 10
10.9396
 20
2.7485
 30
0.0
  0
POINT
  5
C9
  8
0
 62
     1
 10
11.1896
 20
2.7485
 30
0.0
  0
POINT
  5
CA
  8
0
 62
     1
 10
11.4396
 20
2.7485
 30
0.0
  0
POINT
  5
CB
  8
0
 62
     1
 10
11.6895
 20
2.7485
 30
0.0
  0
POINT
  5
CC
  8
0
 62
     1
 10
11.6896
 20
2.2485
 30
0.0
  0
POINT
  5
CD
  8
0
 62
     1
 10
11.6896
 20
1.7485
 30
0.0
  0
POINT
  5
CE
  8
0
 62
     1
 10
11.4396
 20
1.7485
 30
0.0
  0
POINT
  5
CF
  8
0
 62
     1
 10
11.4396
 20
2.2485
 30
0.0
  0
POINT
  5
D0
  8
0
 62
     1
 10
11.1896
 20
2.2485
 30
0.0
  0
POINT
  5
D1
  8
0
 62
     1
 10
10.9396
 20
2.2485
 30
0.0
  0
POINT
  5
D2
  8
0
 62
     1
 10
10.6896
 20
2.2485
 30
0.0
  0
POINT
  5
D3
  8
0
 62
     1
 10
10.1896
 20
2.2485
 30
0.0
  0
POINT
  5
D4
  8
0
 62
     1
 10
9.9396
 20
2.2485
 30
0.0
  0
POINT
  5
D5
  8
0
 62
     1
 10
9.6896
 20
2.2485
 30
0.0
  0
POINT
  5
D6
  8
0
 62
     1
 10
9.4396
 20
2.2485
 30
0.0
  0
POINT
  5
D7
  8
0
 62
     1
 10
9.1896
 20
2.2485
 30
0.0
  0
POINT
  5
D8
  8
0
 62
     1
 10
8.6896
 20
2.2485
 30
0.0
  0
POINT
  5
D9
  8
0
 62
     1
 10
8.4396
 20
2.2485
 30
0.0
  0
POINT
  5
DA
  8
0
 62
     1
 10
8.1896
 20
2.2485
 30
0.0
  0
POINT
  5
DB
  8
0
 62
     1
 10
7.9396
 20
2.2485
 30
0.0
  0
POINT
  5
DC
  8
0
 62
     1
 10
7.6896
 20
2.2485
 30
0.0
  0
POINT
  5
DD
  8
0
 62
     1
 10
7.1896
 20
2.2485
 30
0.0
  0
POINT
  5
DE
  8
0
 62
     1
 10
6.9396
 20
2.2485
 30
0.0
  0
POINT
  5
DF
  8
0
 62
     1
 10
6.6896
 20
2.2485
 30
0.0
  0
POINT
  5
E0
  8
0
 62
     1
 10
6.4396
 20
2.2485
 30
0.0
  0
POINT
  5
E1
  8
0
 62
     1
 10
6.1896
 20
2.2485
 30
0.0
  0
POINT
  5
E2
  8
0
 62
     1
 10
5.6896
 20
2.2485
 30
0.0
  0
POINT
  5
E3
  8
0
 62
     1
 10
5.4396
 20
2.2485
 30
0.0
  0
POINT
  5
E4
  8
0
 62
     1
 10
5.1896
 20
2.2485
 30
0.0
  0
POINT
  5
E5
  8
0
 62
     1
 10
4.9396
 20
2.2485
 30
0.0
  0
POINT
  5
E6
  8
0
 62
     1
 10
4.6896
 20
2.2485
 30
0.0
  0
POINT
  5
E7
  8
0
 62
     1
 10
4.1896
 20
2.2485
 30
0.0
  0
POINT
  5
E8
  8
0
 62
     1
 10
3.9396
 20
2.2485
 30
0.0
  0
POINT
  5
E9
  8
0
 62
     1
 10
3.6896
 20
2.2485
 30
0.0
  0
POINT
  5
EA
  8
0
 62
     1
 10
3.4396
 20
2.2485
 30
0.0
  0
POINT
  5
EB
  8
0
 62
     1
 10
3.1896
 20
2.2485
 30
0.0
  0
POINT
  5
EC
  8
0
 62
     1
 10
3.1896
 20
1.7485
 30
0.0
  0
POINT
  5
ED
  8
0
 62
     1
 10
3.4396
 20
1.7485
 30
0.0
  0
POINT
  5
EE
  8
0
 62
     1
 10
3.4396
 20
1.2485
 30
0.0
  0
POINT
  5
EF
  8
0
 62
     1
 10
3.1896
 20
1.2485
 30
0.0
  0
POINT
  5
F0
  8
0
 62
     1
 10
3.4396
 20
1.2485
 30
0.0
  0
POINT
  5
F1
  8
0
 62
     1
 10
3.6896
 20
1.2485
 30
0.0
  0
POINT
  5
F2
  8
0
 62
     1
 10
3.9396
 20
1.2485
 30
0.0
  0
POINT
  5
F3
  8
0
 62
     1
 10
4.1896
 20
1.2485
 30
0.0
  0
POINT
  5
F4
  8
0
 62
     1
 10
4.6896
 20
1.2485
 30
0.0
  0
POINT
  5
F5
  8
0
 62
     1
 10
4.9396
 20
1.2485
 30
0.0
  0
POINT
  5
F6
  8
0
 62
     1
 10
5.1896
 20
1.2485
 30
0.0
  0
POINT
  5
F7
  8
0
 62
     1
 10
5.4396
 20
1.2485
 30
0.0
  0
POINT
  5
F8
  8
0
 62
     1
 10
5.6896
 20
1.2485
 30
0.0
  0
POINT
  5
F9
  8
0
 62
     1
 10
6.1896
 20
1.2485
 30
0.0
  0
POINT
  5
FA
  8
0
 62
     1
 10
6.4396
 20
1.2485
 30
0.0
  0
POINT
  5
FB
  8
0
 62
     1
 10
6.6896
 20
1.2485
 30
0.0
  0
POINT
  5
FC
  8
0
 62
     1
 10
6.9396
 20
1.2485
 30
0.0
  0
POINT
  5
FD
  8
0
 62
     1
 10
7.1896
 20
1.2485
 30
0.0
  0
POINT
  5
FE
  8
0
 62
     1
 10
7.6896
 20
1.2485
 30
0.0
  0
POINT
  5
FF
  8
0
 62
     1
 10
7.9396
 20
1.2485
 30
0.0
  0
POINT
  5
100
  8
0
 62
     1
 10
8.1896
 20
1.2485
 30
0.0
  0
POINT
  5
101
  8
0
 62
     1
 10
8.4396
 20
1.2485
 30
0.0
  0
POINT
  5
102
  8
0
 62
     1
 10
8.6896
 20
1.2485
 30
0.0
  0
POINT
  5
103
  8
0
 62
     1
 10
9.1896
 20
1.2485
 30
0.0
  0
POINT
  5
104
  8
0
 62
     1
 10
9.4396
 20
1.2485
 30
0.0
  0
POINT
  5
105
  8
0
 62
     1
 10
9.6896
 20
1.2485
 30
0.0
  0
POINT
  5
106
  8
0
 62
     1
 10
9.9396
 20
1.2485
 30
0.0
  0
POINT
  5
107
  8
0
 62
     1
 10
10.1896
 20
1.2485
 30
0.0
  0
POINT
  5
108
  8
0
 62
     1
 10
10.6896
 20
1.2485
 30
0.0
  0
POINT
  5
109
  8
0
 62
     1
 10
10.9396
 20
1.2485
 30
0.0
  0
POINT
  5
10A
  8
0
 62
     1
 10
11.1896
 20
1.2485
 30
0.0
  0
POINT
  5
10B
  8
0
 62
     1
 10
11.4396
 20
1.2485
 30
0.0
  0
POINT
  5
10C
  8
0
 62
     1
 10
11.6896
 20
1.2485
 30
0.0
  0
POINT
  5
10D
  8
0
 62
     1
 10
11.6896
 20
0.7485000000000001
 30
0.0
  0
POINT
  5
10E
  8
0
 62
     1
 10
11.4396
 20
0.7485000000000001
 30
0.0
  0
POINT
  5
10F
  8
0
 62
     1
 10
11.1896
 20
0.7485000000000001
 30
0.0
  0
POINT
  5
110
  8
0
 62
     1
 10
10.9396
 20
0.7485000000000001
 30
0.0
  0
POINT
  5
111
  8
0
 62
     1
 10
10.6896
 20
0.7485000000000001
 30
0.0
  0
POINT
  5
112
  8
0
 62
     1
 10
10.1896
 20
0.7485000000000001
 30
0.0
  0
POINT
  5
113
  8
0
 62
     1
 10
9.9396
 20
0.7485000000000001
 30
0.0
  0
POINT
  5
114
  8
0
 62
     1
 10
9.6896
 20
0.7485000000000001
 30
0.0
  0
POINT
  5
115
  8
0
 62
     1
 10
9.4396
 20
0.7485000000000001
 30
0.0
  0
POINT
  5
116
  8
0
 62
     1
 10
9.1896
 20
0.7485000000000001
 30
0.0
  0
POINT
  5
117
  8
0
 62
     1
 10
8.6896
 20
0.7485000000000001
 30
0.0
  0
POINT
  5
118
  8
0
 62
     1
 10
8.4396
 20
0.7485000000000001
 30
0.0
  0
POINT
  5
119
  8
0
 62
     1
 10
8.1896
 20
0.7485000000000001
 30
0.0
  0
POINT
  5
11A
  8
0
 62
     1
 10
7.9396
 20
0.7485000000000001
 30
0.0
  0
POINT
  5
11B
  8
0
 62
     1
 10
7.6896
 20
0.7485000000000001
 30
0.0
  0
POINT
  5
11C
  8
0
 62
     1
 10
7.1896
 20
0.7485000000000001
 30
0.0
  0
POINT
  5
11D
  8
0
 62
     1
 10
6.9396
 20
0.7485000000000001
 30
0.0
  0
POINT
  5
11E
  8
0
 62
     1
 10
6.6896
 20
0.7485000000000001
 30
0.0
  0
POINT
  5
11F
  8
0
 62
     1
 10
6.4396
 20
0.7485000000000001
 30
0.0
  0
POINT
  5
120
  8
0
 62
     1
 10
6.1896
 20
0.7485000000000001
 30
0.0
  0
POINT
  5
121
  8
0
 62
     1
 10
5.6896
 20
0.7485000000000001
 30
0.0
  0
POINT
  5
122
  8
0
 62
     1
 10
5.4396
 20
0.7485000000000001
 30
0.0
  0
POINT
  5
123
  8
0
 62
     1
 10
5.1896
 20
0.7485000000000001
 30
0.0
  0
POINT
  5
124
  8
0
 62
     1
 10
4.9396
 20
0.7485000000000001
 30
0.0
  0
POINT
  5
125
  8
0
 62
     1
 10
4.6896
 20
0.7485000000000001
 30
0.0
  0
POINT
  5
126
  8
0
 62
     1
 10
4.1896
 20
0.7485000000000001
 30
0.0
  0
POINT
  5
127
  8
0
 62
     1
 10
3.9396
 20
0.7485000000000001
 30
0.0
  0
POINT
  5
128
  8
0
 62
     1
 10
3.6896
 20
0.7485000000000001
 30
0.0
  0
POINT
  5
129
  8
0
 62
     1
 10
3.4396
 20
0.7485000000000001
 30
0.0
  0
POINT
  5
12A
  8
0
 62
     1
 10
3.1896
 20
0.7485000000000001
 30
0.0
  0
SOLID
  5
12B
  8
0
 10
0.1849
 20
5.8769
 30
0.0
 11
0.1849
 21
5.8158
 31
0.0
 12
0.0
 22
5.8464
 32
0.0
 13
0.0
 23
5.8464
 33
0.0
  0
SOLID
  5
12C
  8
0
 10
11.815
 20
5.8158
 30
0.0
 11
11.815
 21
5.8769
 31
0.0
 12
12.0
 22
5.8464
 32
0.0
 13
12.0
 23
5.8464
 33
0.0
  0
LINE
  5
12D
  8
0
 10
0.0
 20
5.8464
 30
0.0
 11
6.1315
 21
5.8464
 31
0.0
  0
LINE
  5
12E
  8
0
 10
6.6733
 20
5.8464
 30
0.0
 11
12.0
 21
5.8464
 31
0.0
  0
TEXT
  5
12F
  8
0
 10
6.1941
 20
5.782
 30
0.0
 40
0.1263
  1
12.00
  0
LINE
  5
130
  8
0
 10
0.0
 20
3.5625
 30
0.0
 11
0.0
 21
5.9714
 31
0.0
  0
LINE
  5
131
  8
0
 10
12.0
 20
3.5625
 30
0.0
 11
12.0
 21
5.9714
 31
0.0
  0
TEXT
  5
132
  8
0
 10
1.3508
 20
2.5771
 30
0.0
 40
0.1263
  1
POCKET
  0
SOLID
  5
133
  8
0
 10
4.839
 20
0.5488
 30
0.0
 11
4.785
 21
0.5185
 31
0.0
 12
4.7205
 22
0.6943
 32
0.0
 13
4.7205
 23
0.6943
 33
0.0
  0
TEXT
  5
134
  8
0
 10
5.1746
 20
0.2722
 30
0.0
 40
0.1263
  1
All 124 holes
  0
TEXT
  5
135
  8
0
 10
5.1746
 20
0.0794
 30
0.0
 40
0.1263
  1
0.125 DIA by 3/8\" deep
  0
LINE
  5
136
  8
0
 10
4.7205
 20
0.6943
 30
0.0
 11
4.9246
 21
0.3366
 31
0.0
  0
LINE
  5
137
  8
0
 10
4.9246
 20
0.3366
 30
0.0
 11
5.1121
 21
0.3366
 31
0.0
  0
SOLID
  5
138
  8
0
 10
0.8918
 20
2.659
 30
0.0
 11
0.8295
 21
2.659
 31
0.0
 12
0.8607
 22
2.844
 32
0.0
 13
0.8607
 23
2.844
 33
0.0
  0
SOLID
  5
139
  8
0
 10
0.8295
 20
0.8409
 30
0.0
 11
0.8918
 21
0.8409
 31
0.0
 12
0.8607
 22
0.656
 32
0.0
 13
0.8607
 23
0.656
 33
0.0
  0
LINE
  5
13A
  8
0
 10
0.8607
 20
1.9871
 30
0.0
 11
0.8607
 21
2.844
 31
0.0
  0
LINE
  5
13B
  8
0
 10
0.8607
 20
0.656
 30
0.0
 11
0.8607
 21
1.6953
 31
0.0
  0
TEXT
  5
13C
  8
0
 10
0.645
 20
1.7768
 30
0.0
 40
0.1263
  1
2.188
  0
SOLID
  5
13D
  8
0
 10
0.6849
 20
-0.3719
 30
0.0
 11
0.6849
 21
-0.433
 31
0.0
 12
0.5
 22
-0.4025
 32
0.0
 13
0.5
 23
-0.4025
 33
0.0
  0
SOLID
  5
13E
  8
0
 10
2.5025
 20
-0.433
 30
0.0
 11
2.5025
 21
-0.3719
 31
0.0
 12
2.6875
 22
-0.4025
 32
0.0
 13
2.6875
 23
-0.4025
 33
0.0
  0
LINE
  5
13F
  8
0
 10
0.5
 20
-0.4025
 30
0.0
 11
1.2298
 21
-0.4025
 31
0.0
  0
LINE
  5
140
  8
0
 10
1.7864
 20
-0.4025
 30
0.0
 11
2.6875
 21
-0.4025
 31
0.0
  0
TEXT
  5
141
  8
0
 10
1.2924
 20
-0.4669
 30
0.0
 40
0.1263
  1
2.188
  0
LINE
  5
142
  8
0
 10
0.5
 20
-0.6667
 30
0.0
 11
0.5
 21
-0.2775
 31
0.0
  0
LINE
  5
143
  8
0
 10
2.6875
 20
-0.6667
 30
0.0
 11
2.6875
 21
-0.2775
 31
0.0
  0
SOLID
  5
144
  8
0
 10
3.0046
 20
1.8823
 30
0.0
 11
3.0046
 21
1.9434
 31
0.0
 12
3.1896
 22
1.9129
 32
0.0
 13
3.1896
 23
1.9129
 33
0.0
  0
SOLID
  5
145
  8
0
 10
3.6245
 20
1.9434
 30
0.0
 11
3.6245
 21
1.8823
 31
0.0
 12
3.4396
 22
1.9129
 32
0.0
 13
3.4396
 23
1.9129
 33
0.0
  0
LINE
  5
146
  8
0
 10
3.4396
 20
1.9129
 30
0.0
 11
4.0177
 21
1.9129
 31
0.0
  0
LINE
  5
147
  8
0
 10
2.8146
 20
1.9129
 30
0.0
 11
3.1896
 21
1.9129
 31
0.0
  0
TEXT
  5
148
  8
0
 10
4.0802
 20
1.8485
 30
0.0
 40
0.1263
  1
.250 Typ.
  0
LINE
  5
149
  8
0
 10
3.1896
 20
1.811
 30
0.0
 11
3.1896
 21
2.0379
 31
0.0
  0
LINE
  5
14A
  8
0
 10
3.4396
 20
1.811
 30
0.0
 11
3.4396
 21
2.0379
 31
0.0
  0
SOLID
  5
14B
  8
0
 10
4.0046
 20
1.5556
 30
0.0
 11
4.0046
 21
1.6167
 31
0.0
 12
4.1896
 22
1.5862
 32
0.0
 13
4.1896
 23
1.5862
 33
0.0
  0
SOLID
  5
14C
  8
0
 10
4.8745
 20
1.6167
 30
0.0
 11
4.8745
 21
1.5556
 31
0.0
 12
4.6896
 22
1.5862
 32
0.0
 13
4.6896
 23
1.5862
 33
0.0
  0
LINE
  5
14D
  8
0
 10
4.6896
 20
1.5862
 30
0.0
 11
5.1858
 21
1.5862
 31
0.0
  0
LINE
  5
14E
  8
0
 10
3.8146
 20
1.5862
 30
0.0
 11
4.1896
 21
1.5862
 31
0.0
  0
TEXT
  5
14F
  8
0
 10
5.2483
 20
1.5218
 30
0.0
 40
0.1263
  1
.500 Typ.
  0
LINE
  5
150
  8
0
 10
4.1896
 20
1.311
 30
0.0
 11
4.1896
 21
1.7112
 31
0.0
  0
LINE
  5
151
  8
0
 10
4.6896
 20
1.311
 30
0.0
 11
4.6896
 21
1.7112
 31
0.0
  0
SOLID
  5
152
  8
0
 10
2.9512
 20
1.4334
 30
0.0
 11
3.0135
 21
1.4334
 31
0.0
 12
2.9824
 22
1.2485
 32
0.0
 13
2.9824
 23
1.2485
 33
0.0
  0
SOLID
  5
153
  8
0
 10
3.0135
 20
0.5635
 30
0.0
 11
2.9512
 21
0.5635
 31
0.0
 12
2.9824
 22
0.7485000000000001
 32
0.0
 13
2.9824
 23
0.7485000000000001
 33
0.0
  0
LINE
  5
154
  8
0
 10
2.9824
 20
0.294
 30
0.0
 11
2.9824
 21
0.7485000000000001
 31
0.0
  0
LINE
  5
155
  8
0
 10
2.9824
 20
1.2485
 30
0.0
 11
2.9824
 21
1.6235
 31
0.0
  0
LINE
  5
156
  8
0
 10
2.7949
 20
0.294
 30
0.0
 11
2.9824
 21
0.294
 31
0.0
  0
TEXT
  5
157
  8
0
 10
2.0236
 20
0.2296
 30
0.0
 40
0.1263
  1
.500 Typ.
  0
LINE
  5
158
  8
0
 10
2.8574
 20
1.2485
 30
0.0
 11
3.1271
 21
1.2485
 31
0.0
  0
LINE
  5
159
  8
0
 10
2.8574
 20
0.7485000000000001
 30
0.0
 11
3.1271
 21
0.7485000000000001
 31
0.0
  0
SOLID
  5
15A
  8
0
 10
2.9265
 20
-0.5442
 30
0.0
 11
2.9888
 21
-0.5442
 31
0.0
 12
2.9577
 22
-0.7292
 32
0.0
 13
2.9577
 23
-0.7292
 33
0.0
  0
SOLID
  5
15B
  8
0
 10
2.9888
 20
-1.2891
 30
0.0
 11
2.9265
 21
-1.2891
 31
0.0
 12
2.9577
 22
-1.1042
 32
0.0
 13
2.9577
 23
-1.1042
 33
0.0
  0
LINE
  5
15C
  8
0
 10
2.9577
 20
-0.7292
 30
0.0
 11
2.9577
 21
-0.4024
 31
0.0
  0
LINE
  5
15D
  8
0
 10
2.9577
 20
-1.4792
 30
0.0
 11
2.9577
 21
-1.1042
 31
0.0
  0
LINE
  5
15E
  8
0
 10
2.9577
 20
-0.4024
 30
0.0
 11
3.1452
 21
-0.4024
 31
0.0
  0
TEXT
  5
15F
  8
0
 10
3.2077
 20
-0.4668
 30
0.0
 40
0.1263
  1
.375
  0
LINE
  5
160
  8
0
 10
2.75
 20
-1.1042
 30
0.0
 11
3.0827
 21
-1.1042
 31
0.0
  0
SOLID
  5
161
  8
0
 10
0.1849
 20
3.8035
 30
0.0
 11
0.1849
 21
3.7424
 31
0.0
 12
0.0
 22
3.773
 32
0.0
 13
0.0
 23
3.773
 33
0.0
  0
SOLID
  5
162
  8
0
 10
3.0045
 20
3.7424
 30
0.0
 11
3.0045
 21
3.8035
 31
0.0
 12
3.1895
 22
3.773
 32
0.0
 13
3.1895
 23
3.773
 33
0.0
  0
LINE
  5
163
  8
0
 10
0.0
 20
3.773
 30
0.0
 11
1.2138
 21
3.773
 31
0.0
  0
LINE
  5
164
  8
0
 10
1.7674
 20
3.773
 30
0.0
 11
3.1895
 21
3.773
 31
0.0
  0
TEXT
  5
165
  8
0
 10
1.2764
 20
3.7086
 30
0.0
 40
0.1263
  1
3.190
  0
LINE
  5
166
  8
0
 10
0.0
 20
3.5625
 30
0.0
 11
0.0
 21
3.898
 31
0.0
  0
LINE
  5
167
  8
0
 10
3.1895
 20
2.811
 30
0.0
 11
3.1895
 21
3.898
 31
0.0
  0
SOLID
  5
168
  8
0
 10
0.1849
 20
4.1159
 30
0.0
 11
0.1849
 21
4.0548
 31
0.0
 12
0.0
 22
4.0854
 32
0.0
 13
0.0
 23
4.0854
 33
0.0
  0
SOLID
  5
169
  8
0
 10
4.5046
 20
4.0548
 30
0.0
 11
4.5046
 21
4.1159
 31
0.0
 12
4.6896
 22
4.0854
 32
0.0
 13
4.6896
 23
4.0854
 33
0.0
  0
LINE
  5
16A
  8
0
 10
0.0
 20
4.0854
 30
0.0
 11
1.7601
 21
4.0854
 31
0.0
  0
LINE
  5
16B
  8
0
 10
2.3189
 20
4.0854
 30
0.0
 11
4.6896
 21
4.0854
 31
0.0
  0
TEXT
  5
16C
  8
0
 10
1.8227
 20
4.021
 30
0.0
 40
0.1263
  1
4.690
  0
LINE
  5
16D
  8
0
 10
0.0
 20
3.5625
 30
0.0
 11
0.0
 21
4.2104
 31
0.0
  0
LINE
  5
16E
  8
0
 10
4.6896
 20
2.811
 30
0.0
 11
4.6896
 21
4.2104
 31
0.0
  0
SOLID
  5
16F
  8
0
 10
0.1849
 20
4.3857
 30
0.0
 11
0.1849
 21
4.3246
 31
0.0
 12
0.0
 22
4.3552
 32
0.0
 13
0.0
 23
4.3552
 33
0.0
  0
SOLID
  5
170
  8
0
 10
6.0046
 20
4.3246
 30
0.0
 11
6.0046
 21
4.3857
 31
0.0
 12
6.1896
 22
4.3552
 32
0.0
 13
6.1896
 23
4.3552
 33
0.0
  0
LINE
  5
171
  8
0
 10
0.0
 20
4.3552
 30
0.0
 11
2.3956
 21
4.3552
 31
0.0
  0
LINE
  5
172
  8
0
 10
2.95
 20
4.3552
 30
0.0
 11
6.1896
 21
4.3552
 31
0.0
  0
TEXT
  5
173
  8
0
 10
2.4582
 20
4.2908
 30
0.0
 40
0.1263
  1
6.190
  0
LINE
  5
174
  8
0
 10
0.0
 20
3.5625
 30
0.0
 11
0.0
 21
4.4802
 31
0.0
  0
LINE
  5
175
  8
0
 10
6.1896
 20
2.811
 30
0.0
 11
6.1896
 21
4.4802
 31
0.0
  0
SOLID
  5
176
  8
0
 10
0.1849
 20
4.9111
 30
0.0
 11
0.1849
 21
4.85
 31
0.0
 12
0.0
 22
4.8806
 32
0.0
 13
0.0
 23
4.8806
 33
0.0
  0
SOLID
  5
177
  8
0
 10
9.0046
 20
4.85
 30
0.0
 11
9.0046
 21
4.9111
 31
0.0
 12
9.1896
 22
4.8806
 32
0.0
 13
9.1896
 23
4.8806
 33
0.0
  0
LINE
  5
178
  8
0
 10
0.0
 20
4.8806
 30
0.0
 11
3.9019
 21
4.8806
 31
0.0
  0
LINE
  5
179
  8
0
 10
4.4555
 20
4.8806
 30
0.0
 11
9.1896
 21
4.8806
 31
0.0
  0
TEXT
  5
17A
  8
0
 10
3.9645
 20
4.8162
 30
0.0
 40
0.1263
  1
9.190
  0
LINE
  5
17B
  8
0
 10
0.0
 20
3.5625
 30
0.0
 11
0.0
 21
5.0056
 31
0.0
  0
LINE
  5
17C
  8
0
 10
9.1896
 20
2.811
 30
0.0
 11
9.1896
 21
5.0056
 31
0.0
  0
SOLID
  5
17D
  8
0
 10
0.1849
 20
5.1667
 30
0.0
 11
0.1849
 21
5.1056
 31
0.0
 12
0.0
 22
5.1362
 32
0.0
 13
0.0
 23
5.1362
 33
0.0
  0
SOLID
  5
17E
  8
0
 10
10.5046
 20
5.1056
 30
0.0
 11
10.5046
 21
5.1667
 31
0.0
 12
10.6896
 22
5.1362
 32
0.0
 13
10.6896
 23
5.1362
 33
0.0
  0
LINE
  5
17F
  8
0
 10
0.0
 20
5.1362
 30
0.0
 11
4.7592
 21
5.1362
 31
0.0
  0
LINE
  5
180
  8
0
 10
5.3996
 20
5.1362
 30
0.0
 11
10.6896
 21
5.1362
 31
0.0
  0
TEXT
  5
181
  8
0
 10
4.8218
 20
5.0718
 30
0.0
 40
0.1263
  1
10.690
  0
LINE
  5
182
  8
0
 10
0.0
 20
3.5625
 30
0.0
 11
0.0
 21
5.2612
 31
0.0
  0
LINE
  5
183
  8
0
 10
10.6896
 20
2.811
 30
0.0
 11
10.6896
 21
5.2612
 31
0.0
  0
SOLID
  5
184
  8
0
 10
0.1849
 20
5.4649
 30
0.0
 11
0.1849
 21
5.4038
 31
0.0
 12
0.0
 22
5.4344
 32
0.0
 13
0.0
 23
5.4344
 33
0.0
  0
SOLID
  5
185
  8
0
 10
11.2546
 20
5.4038
 30
0.0
 11
11.2546
 21
5.4649
 31
0.0
 12
11.4396
 22
5.4344
 32
0.0
 13
11.4396
 23
5.4344
 33
0.0
  0
LINE
  5
186
  8
0
 10
0.0
 20
5.4344
 30
0.0
 11
5.4911
 21
5.4344
 31
0.0
  0
LINE
  5
187
  8
0
 10
6.1315
 20
5.4344
 30
0.0
 11
11.4396
 21
5.4344
 31
0.0
  0
TEXT
  5
188
  8
0
 10
5.5537
 20
5.37
 30
0.0
 40
0.1263
  1
11.440
  0
LINE
  5
189
  8
0
 10
0.0
 20
3.5625
 30
0.0
 11
0.0
 21
5.5594
 31
0.0
  0
LINE
  5
18A
  8
0
 10
11.4396
 20
1.811
 30
0.0
 11
11.4396
 21
5.5594
 31
0.0
  0
SOLID
  5
18B
  8
0
 10
13.245
 20
1.5635
 30
0.0
 11
13.1827
 21
1.5635
 31
0.0
 12
13.2139
 22
1.7485
 32
0.0
 13
13.2139
 23
1.7485
 33
0.0
  0
SOLID
  5
18C
  8
0
 10
13.1827
 20
0.1849
 30
0.0
 11
13.245
 21
0.1849
 31
0.0
 12
13.2139
 22
0.0
 32
0.0
 13
13.2139
 23
0.0
 33
0.0
  0
LINE
  5
18D
  8
0
 10
13.2139
 20
1.3203
 30
0.0
 11
13.2139
 21
1.7485
 31
0.0
  0
LINE
  5
18E
  8
0
 10
13.2139
 20
0.0
 30
0.0
 11
13.2139
 21
1.0285
 31
0.0
  0
TEXT
  5
18F
  8
0
 10
13.0543
 20
1.11
 30
0.0
 40
0.1263
  1
1.75
  0
LINE
  5
190
  8
0
 10
12.0625
 20
0.0
 30
0.0
 11
13.3389
 21
0.0
 31
0.0
  0
LINE
  5
191
  8
0
 10
11.7521
 20
1.7485
 30
0.0
 11
13.3389
 21
1.7485
 31
0.0
  0
SOLID
  5
192
  8
0
 10
12.7665
 20
1.0635
 30
0.0
 11
12.7042
 21
1.0635
 31
0.0
 12
12.7354
 22
1.2485
 32
0.0
 13
12.7354
 23
1.2485
 33
0.0
  0
SOLID
  5
193
  8
0
 10
12.7042
 20
0.1849
 30
0.0
 11
12.7665
 21
0.1849
 31
0.0
 12
12.7354
 22
0.0
 32
0.0
 13
12.7354
 23
0.0
 33
0.0
  0
LINE
  5
194
  8
0
 10
12.7354
 20
0.9795
 30
0.0
 11
12.7354
 21
1.2485
 31
0.0
  0
LINE
  5
195
  8
0
 10
12.7354
 20
0.0
 30
0.0
 11
12.7354
 21
0.6877
 31
0.0
  0
TEXT
  5
196
  8
0
 10
12.5758
 20
0.7692
 30
0.0
 40
0.1263
  1
1.25
  0
LINE
  5
197
  8
0
 10
12.0625
 20
0.0
 30
0.0
 11
12.8604
 21
0.0
 31
0.0
  0
LINE
  5
198
  8
0
 10
11.7521
 20
1.2485
 30
0.0
 11
12.8604
 21
1.2485
 31
0.0
  0
SOLID
  5
199
  8
0
 10
12.2961
 20
0.9334
 30
0.0
 11
12.3584
 21
0.9334
 31
0.0
 12
12.3273
 22
0.7485000000000001
 32
0.0
 13
12.3273
 23
0.7485000000000001
 33
0.0
  0
SOLID
  5
19A
  8
0
 10
12.3584
 20
-0.1849
 30
0.0
 11
12.2961
 21
-0.1849
 31
0.0
 12
12.3273
 22
0.0
 32
0.0
 13
12.3273
 23
0.0
 33
0.0
  0
LINE
  5
19B
  8
0
 10
12.3273
 20
0.7485000000000001
 30
0.0
 11
12.3273
 21
1.1235
 31
0.0
  0
LINE
  5
19C
  8
0
 10
12.3273
 20
-0.375
 30
0.0
 11
12.3273
 21
0.0
 31
0.0
  0
TEXT
  5
19D
  8
0
 10
12.2155
 20
0.2864
 30
0.0
 40
0.1263
  1
.75
  0
LINE
  5
19E
  8
0
 10
12.0625
 20
0.0
 30
0.0
 11
12.4523
 21
0.0
 31
0.0
  0
LINE
  5
19F
  8
0
 10
11.7521
 20
0.7485000000000001
 30
0.0
 11
12.4523
 21
0.7485000000000001
 31
0.0
  0
SOLID
  5
1A0
  8
0
 10
13.6813
 20
2.0635
 30
0.0
 11
13.619
 21
2.0635
 31
0.0
 12
13.6502
 22
2.2485
 32
0.0
 13
13.6502
 23
2.2485
 33
0.0
  0
SOLID
  5
1A1
  8
0
 10
13.619
 20
0.1849
 30
0.0
 11
13.6813
 21
0.1849
 31
0.0
 12
13.6502
 22
0.0
 32
0.0
 13
13.6502
 23
0.0
 33
0.0
  0
LINE
  5
1A2
  8
0
 10
13.6502
 20
1.8599
 30
0.0
 11
13.6502
 21
2.2485
 31
0.0
  0
LINE
  5
1A3
  8
0
 10
13.6502
 20
0.0
 30
0.0
 11
13.6502
 21
1.5681
 31
0.0
  0
TEXT
  5
1A4
  8
0
 10
13.4836
 20
1.6496
 30
0.0
 40
0.1263
  1
2.25
  0
LINE
  5
1A5
  8
0
 10
12.0625
 20
0.0
 30
0.0
 11
13.7752
 21
0.0
 31
0.0
  0
LINE
  5
1A6
  8
0
 10
11.7521
 20
2.2485
 30
0.0
 11
13.7752
 21
2.2485
 31
0.0
  0
SOLID
  5
1A7
  8
0
 10
14.1176
 20
2.5635
 30
0.0
 11
14.0553
 21
2.5635
 31
0.0
 12
14.0865
 22
2.7485
 32
0.0
 13
14.0865
 23
2.7485
 33
0.0
  0
SOLID
  5
1A8
  8
0
 10
14.0553
 20
0.1849
 30
0.0
 11
14.1176
 21
0.1849
 31
0.0
 12
14.0865
 22
0.0
 32
0.0
 13
14.0865
 23
0.0
 33
0.0
  0
LINE
  5
1A9
  8
0
 10
14.0865
 20
2.2008
 30
0.0
 11
14.0865
 21
2.7485
 31
0.0
  0
LINE
  5
1AA
  8
0
 10
14.0865
 20
0.0
 30
0.0
 11
14.0865
 21
1.909
 31
0.0
  0
TEXT
  5
1AB
  8
0
 10
13.9199
 20
1.9905
 30
0.0
 40
0.1263
  1
2.75
  0
LINE
  5
1AC
  8
0
 10
12.0625
 20
0.0
 30
0.0
 11
14.2115
 21
0.0
 31
0.0
  0
LINE
  5
1AD
  8
0
 10
11.752
 20
2.7485
 30
0.0
 11
14.2115
 21
2.7485
 31
0.0
  0
SOLID
  5
1AE
  8
0
 10
-0.3138
 20
0.8409
 30
0.0
 11
-0.2515
 21
0.8409
 31
0.0
 12
-0.2827
 22
0.656
 32
0.0
 13
-0.2827
 23
0.656
 33
0.0
  0
SOLID
  5
1AF
  8
0
 10
-0.2515
 20
-0.1849
 30
0.0
 11
-0.3138
 21
-0.1849
 31
0.0
 12
-0.2827
 22
0.0
 32
0.0
 13
-0.2827
 23
0.0
 33
0.0
  0
LINE
  5
1B0
  8
0
 10
-0.2827
 20
0.656
 30
0.0
 11
-0.2827
 21
1.031
 31
0.0
  0
LINE
  5
1B1
  8
0
 10
-0.2827
 20
-0.375
 30
0.0
 11
-0.2827
 21
0.0
 31
0.0
  0
TEXT
  5
1B2
  8
0
 10
-0.394
 20
0.272
 30
0.0
 40
0.1263
  1
.66
  0
LINE
  5
1B3
  8
0
 10
-0.4077
 20
0.656
 30
0.0
 11
0.4375
 21
0.656
 31
0.0
  0
LINE
  5
1B4
  8
0
 10
-0.4077
 20
0.0
 30
0.0
 11
-0.0625
 21
0.0
 31
0.0
  0
SOLID
  5
1B5
  8
0
 10
-0.1849
 20
2.9187
 30
0.0
 11
-0.1849
 21
2.9798
 31
0.0
 12
0.0
 22
2.9493
 32
0.0
 13
0.0
 23
2.9493
 33
0.0
  0
SOLID
  5
1B6
  8
0
 10
0.6849
 20
2.9798
 30
0.0
 11
0.6849
 21
2.9187
 31
0.0
 12
0.5
 22
2.9493
 32
0.0
 13
0.5
 23
2.9493
 33
0.0
  0
LINE
  5
1B7
  8
0
 10
-0.375
 20
2.9493
 30
0.0
 11
0.0
 21
2.9493
 31
0.0
  0
LINE
  5
1B8
  8
0
 10
0.5
 20
2.9493
 30
0.0
 11
0.875
 21
2.9493
 31
0.0
  0
TEXT
  5
1B9
  8
0
 10
-0.6176
 20
2.8849
 30
0.0
 40
0.1263
  1
.50
  0
LINE
  5
1BA
  8
0
 10
0.5
 20
2.9065
 30
0.0
 11
0.5
 21
3.0743
 31
0.0
  0
SOLID
  5
1BB
  8
0
 10
0.1365
 20
-0.5442
 30
0.0
 11
0.1988
 21
-0.5442
 31
0.0
 12
0.1677
 22
-0.7292
 32
0.0
 13
0.1677
 23
-0.7292
 33
0.0
  0
SOLID
  5
1BC
  8
0
 10
0.1988
 20
-1.4141
 30
0.0
 11
0.1365
 21
-1.4141
 31
0.0
 12
0.1677
 22
-1.2292
 32
0.0
 13
0.1677
 23
-1.2292
 33
0.0
  0
LINE
  5
1BD
  8
0
 10
0.1677
 20
-1.6375
 30
0.0
 11
0.1677
 21
-1.2292
 31
0.0
  0
LINE
  5
1BE
  8
0
 10
0.1677
 20
-0.7292
 30
0.0
 11
0.1677
 21
-0.3542
 31
0.0
  0
LINE
  5
1BF
  8
0
 10
0.1677
 20
-1.6375
 30
0.0
 11
0.3552
 21
-1.6375
 31
0.0
  0
TEXT
  5
1C0
  8
0
 10
0.4177
 20
-1.7019
 30
0.0
 40
0.1263
  1
.50
  0
LINE
  5
1C1
  8
0
 62
     5
 10
0.0
 20
-1.2292
 30
0.0
 11
0.0
 21
-0.7292
 31
0.0
  0
LINE
  5
1C2
  8
0
 62
     5
 10
0.0
 20
-1.2292
 30
0.0
 11
12.0
 21
-1.2292
 31
0.0
  0
LINE
  5
1C3
  8
0
 62
     5
 10
12.0
 20
-1.2292
 30
0.0
 11
12.0
 21
-0.7292
 31
0.0
  0
LINE
  5
1C4
  8
0
 62
     5
 10
0.0
 20
3.5
 30
0.0
 11
0.0
 21
0.0
 31
0.0
  0
LINE
  5
1C5
  8
0
 62
     5
 10
12.0
 20
3.5
 30
0.0
 11
12.0
 21
0.0
 31
0.0
  0
LINE
  5
1C6
  8
0
 62
     5
 10
0.0
 20
3.5
 30
0.0
 11
12.0
 21
3.5
 31
0.0
  0
LINE
  5
1C7
  8
0
 62
     5
 10
0.0
 20
0.0
 30
0.0
 11
12.0
 21
0.0
 31
0.0
  0
LINE
  5
1C8
  8
0
 62
     5
 10
0.0
 20
-0.7292
 30
0.0
 11
12.0
 21
-0.7292
 31
0.0
  0
LINE
  5
1C9
  8
0
 62
     1
 10
0.5
 20
-1.1042
 30
0.0
 11
0.5
 21
-0.7292
 31
0.0
  0
LINE
  5
1CA
  8
0
 62
     1
 10
0.5
 20
-1.1042
 30
0.0
 11
2.6875
 21
-1.1042
 31
0.0
  0
LINE
  5
1CB
  8
0
 62
     1
 10
2.6875
 20
-1.1042
 30
0.0
 11
2.6875
 21
-0.7292
 31
0.0
  0
LINE
  5
1CC
  8
DEFAULT
 62
     1
 10
0.5
 20
2.844
 30
0.0
 11
2.6875
 21
2.844
 31
0.0
  0
LINE
  5
1CD
  8
DEFAULT
 62
     1
 10
2.6875
 20
0.656
 30
0.0
 11
2.6875
 21
2.844
 31
0.0
  0
LINE
  5
1CE
  8
DEFAULT
 62
     1
 10
0.5
 20
0.656
 30
0.0
 11
2.6875
 21
0.656
 31
0.0
  0
LINE
  5
1CF
  8
DEFAULT
 62
     1
 10
0.5
 20
0.656
 30
0.0
 11
0.5
 21
2.844
 31
0.0
  0
ENDSEC
  0
EOF
