  0
SECTION
  2
HEADER
  9
$ACADVER
  1
AC1027
  9
$ACADMAINTVER
 70
    55
  9
$DWGCODEPAGE
  3
ANSI_1252
  9
$LASTSAVEDBY
  1
ADX Member
  9
$REQUIREDVERSIONS
160
                 0
  9
$INSBASE
 10
0.0
 20
0.0
 30
0.0
  9
$EXTMIN
 10
-3.197692110458376
 20
-34.32831058655652
 30
0.0
  9
$EXTMAX
 10
96.0
 20
48.0
 30
0.0
  9
$LIMMIN
 10
0.0
 20
0.0
  9
$LIMMAX
 10
12.0
 20
9.0
  9
$ORTHOMODE
 70
     0
  9
$REGENMODE
 70
     1
  9
$FILLMODE
 70
     1
  9
$QTEXTMODE
 70
     0
  9
$MIRRTEXT
 70
     0
  9
$LTSCALE
 40
1.0
  9
$ATTMODE
 70
     1
  9
$TEXTSIZE
 40
1.979187114039831
  9
$TRACEWID
 40
0.05
  9
$TEXTSTYLE
  7
Standard
  9
$CLAYER
  8
0
  9
$CELTYPE
  6
ByLayer
  9
$CECOLOR
 62
   256
  9
$CELTSCALE
 40
1.0
  9
$DISPSILH
 70
     0
  9
$DIMSCALE
 40
1.0
  9
$DIMASZ
 40
0.18
  9
$DIMEXO
 40
0.0625
  9
$DIMDLI
 40
0.38
  9
$DIMRND
 40
0.0
  9
$DIMDLE
 40
0.0
  9
$DIMEXE
 40
0.18
  9
$DIMTP
 40
0.0
  9
$DIMTM
 40
0.0
  9
$DIMTXT
 40
0.18
  9
$DIMCEN
 40
0.09
  9
$DIMTSZ
 40
0.0
  9
$DIMTOL
 70
     0
  9
$DIMLIM
 70
     0
  9
$DIMTIH
 70
     1
  9
$DIMTOH
 70
     1
  9
$DIMSE1
 70
     0
  9
$DIMSE2
 70
     0
  9
$DIMTAD
 70
     0
  9
$DIMZIN
 70
     0
  9
$DIMBLK
  1

  9
$DIMASO
 70
     1
  9
$DIMSHO
 70
     1
  9
$DIMPOST
  1

  9
$DIMAPOST
  1

  9
$DIMALT
 70
     0
  9
$DIMALTD
 70
     2
  9
$DIMALTF
 40
25.4
  9
$DIMLFAC
 40
1.0
  9
$DIMTOFL
 70
     0
  9
$DIMTVP
 40
0.0
  9
$DIMTIX
 70
     0
  9
$DIMSOXD
 70
     0
  9
$DIMSAH
 70
     0
  9
$DIMBLK1
  1

  9
$DIMBLK2
  1

  9
$DIMSTYLE
  2
Standard
  9
$DIMCLRD
 70
     0
  9
$DIMCLRE
 70
     0
  9
$DIMCLRT
 70
     0
  9
$DIMTFAC
 40
1.0
  9
$DIMGAP
 40
0.09
  9
$DIMJUST
 70
     0
  9
$DIMSD1
 70
     0
  9
$DIMSD2
 70
     0
  9
$DIMTOLJ
 70
     1
  9
$DIMTZIN
 70
     0
  9
$DIMALTZ
 70
     0
  9
$DIMALTTZ
 70
     0
  9
$DIMUPT
 70
     0
  9
$DIMDEC
 70
     4
  9
$DIMTDEC
 70
     4
  9
$DIMALTU
 70
     2
  9
$DIMALTTD
 70
     2
  9
$DIMTXSTY
  7
Standard
  9
$DIMAUNIT
 70
     0
  9
$DIMADEC
 70
     0
  9
$DIMALTRND
 40
0.0
  9
$DIMAZIN
 70
     0
  9
$DIMDSEP
 70
    46
  9
$DIMATFIT
 70
     3
  9
$DIMFRAC
 70
     0
  9
$DIMLDRBLK
  1

  9
$DIMLUNIT
 70
     2
  9
$DIMLWD
 70
    -2
  9
$DIMLWE
 70
    -2
  9
$DIMTMOVE
 70
     0
  9
$DIMFXL
 40
1.0
  9
$DIMFXLON
 70
     0
  9
$DIMJOGANG
 40
0.7853981633974483
  9
$DIMTFILL
 70
     0
  9
$DIMTFILLCLR
 70
     0
  9
$DIMARCSYM
 70
     0
  9
$DIMLTYPE
  6

  9
$DIMLTEX1
  6

  9
$DIMLTEX2
  6

  9
$DIMTXTDIRECTION
 70
     0
  9
$LUNITS
 70
     2
  9
$LUPREC
 70
     4
  9
$SKETCHINC
 40
0.1
  9
$FILLETRAD
 40
0.0
  9
$AUNITS
 70
     0
  9
$AUPREC
 70
     0
  9
$MENU
  1
.
  9
$ELEVATION
 40
0.0
  9
$PELEVATION
 40
0.0
  9
$THICKNESS
 40
0.0
  9
$LIMCHECK
 70
     0
  9
$CHAMFERA
 40
0.0
  9
$CHAMFERB
 40
0.0
  9
$CHAMFERC
 40
0.0
  9
$CHAMFERD
 40
0.0
  9
$SKPOLY
 70
     0
  9
$TDCREATE
 40
2457192.496108437
  9
$TDUCREATE
 40
2457192.787775104
  9
$TDUPDATE
 40
2457193.465605081
  9
$TDUUPDATE
 40
2457193.757271748
  9
$TDINDWG
 40
0.9316034144
  9
$TDUSRTIMER
 40
0.9316033681
  9
$USRTIMER
 70
     1
  9
$ANGBASE
 50
0.0
  9
$ANGDIR
 70
     0
  9
$PDMODE
 70
     0
  9
$PDSIZE
 40
0.0
  9
$PLINEWID
 40
0.0
  9
$SPLFRAME
 70
     0
  9
$SPLINETYPE
 70
     6
  9
$SPLINESEGS
 70
     8
  9
$HANDSEED
  5
4F3
  9
$SURFTAB1
 70
     6
  9
$SURFTAB2
 70
     6
  9
$SURFTYPE
 70
     6
  9
$SURFU
 70
     6
  9
$SURFV
 70
     6
  9
$UCSBASE
  2

  9
$UCSNAME
  2

  9
$UCSORG
 10
0.0
 20
0.0
 30
0.0
  9
$UCSXDIR
 10
1.0
 20
0.0
 30
0.0
  9
$UCSYDIR
 10
0.0
 20
1.0
 30
0.0
  9
$UCSORTHOREF
  2

  9
$UCSORTHOVIEW
 70
     0
  9
$UCSORGTOP
 10
0.0
 20
0.0
 30
0.0
  9
$UCSORGBOTTOM
 10
0.0
 20
0.0
 30
0.0
  9
$UCSORGLEFT
 10
0.0
 20
0.0
 30
0.0
  9
$UCSORGRIGHT
 10
0.0
 20
0.0
 30
0.0
  9
$UCSORGFRONT
 10
0.0
 20
0.0
 30
0.0
  9
$UCSORGBACK
 10
0.0
 20
0.0
 30
0.0
  9
$PUCSBASE
  2

  9
$PUCSNAME
  2

  9
$PUCSORG
 10
0.0
 20
0.0
 30
0.0
  9
$PUCSXDIR
 10
1.0
 20
0.0
 30
0.0
  9
$PUCSYDIR
 10
0.0
 20
1.0
 30
0.0
  9
$PUCSORTHOREF
  2

  9
$PUCSORTHOVIEW
 70
     0
  9
$PUCSORGTOP
 10
0.0
 20
0.0
 30
0.0
  9
$PUCSORGBOTTOM
 10
0.0
 20
0.0
 30
0.0
  9
$PUCSORGLEFT
 10
0.0
 20
0.0
 30
0.0
  9
$PUCSORGRIGHT
 10
0.0
 20
0.0
 30
0.0
  9
$PUCSORGFRONT
 10
0.0
 20
0.0
 30
0.0
  9
$PUCSORGBACK
 10
0.0
 20
0.0
 30
0.0
  9
$USERI1
 70
     0
  9
$USERI2
 70
     0
  9
$USERI3
 70
     0
  9
$USERI4
 70
     0
  9
$USERI5
 70
     0
  9
$USERR1
 40
0.0
  9
$USERR2
 40
0.0
  9
$USERR3
 40
0.0
  9
$USERR4
 40
0.0
  9
$USERR5
 40
0.0
  9
$WORLDVIEW
 70
     1
  9
$SHADEDGE
 70
     3
  9
$SHADEDIF
 70
    70
  9
$TILEMODE
 70
     1
  9
$MAXACTVP
 70
    64
  9
$PINSBASE
 10
0.0
 20
0.0
 30
0.0
  9
$PLIMCHECK
 70
     0
  9
$PEXTMIN
 10
1.000000000000000E+20
 20
1.000000000000000E+20
 30
1.000000000000000E+20
  9
$PEXTMAX
 10
-1.000000000000000E+20
 20
-1.000000000000000E+20
 30
-1.000000000000000E+20
  9
$PLIMMIN
 10
0.0
 20
0.0
  9
$PLIMMAX
 10
12.0
 20
9.0
  9
$UNITMODE
 70
     0
  9
$VISRETAIN
 70
     1
  9
$PLINEGEN
 70
     0
  9
$PSLTSCALE
 70
     1
  9
$TREEDEPTH
 70
  3020
  9
$CMLSTYLE
  2
Standard
  9
$CMLJUST
 70
     0
  9
$CMLSCALE
 40
1.0
  9
$PROXYGRAPHICS
 70
     1
  9
$MEASUREMENT
 70
     0
  9
$CELWEIGHT
370
    -1
  9
$ENDCAPS
280
     0
  9
$JOINSTYLE
280
     0
  9
$LWDISPLAY
290
     0
  9
$INSUNITS
 70
     1
  9
$HYPERLINKBASE
  1

  9
$STYLESHEET
  1

  9
$XEDIT
290
     1
  9
$CEPSNTYPE
380
     0
  9
$PSTYLEMODE
290
     1
  9
$FINGERPRINTGUID
  2
{7110E6B0-0D64-4262-B328-F0CB995E8A41}
  9
$VERSIONGUID
  2
{10B4BC9A-3031-475B-BE66-2104B93D077B}
  9
$EXTNAMES
290
     1
  9
$PSVPSCALE
 40
0.0
  9
$OLESTARTUP
290
     0
  9
$SORTENTS
280
   127
  9
$INDEXCTL
280
     0
  9
$HIDETEXT
280
     1
  9
$XCLIPFRAME
280
     2
  9
$HALOGAP
280
     0
  9
$OBSCOLOR
 70
   257
  9
$OBSLTYPE
280
     0
  9
$INTERSECTIONDISPLAY
280
     0
  9
$INTERSECTIONCOLOR
 70
   257
  9
$DIMASSOC
280
     2
  9
$PROJECTNAME
  1

  9
$CAMERADISPLAY
290
     0
  9
$LENSLENGTH
 40
50.0
  9
$CAMERAHEIGHT
 40
0.0
  9
$STEPSPERSEC
 40
2.0
  9
$STEPSIZE
 40
6.0
  9
$3DDWFPREC
 40
2.0
  9
$PSOLWIDTH
 40
0.25
  9
$PSOLHEIGHT
 40
4.0
  9
$LOFTANG1
 40
1.570796326794896
  9
$LOFTANG2
 40
1.570796326794896
  9
$LOFTMAG1
 40
0.0
  9
$LOFTMAG2
 40
0.0
  9
$LOFTPARAM
 70
     7
  9
$LOFTNORMALS
280
     1
  9
$LATITUDE
 40
37.795
  9
$LONGITUDE
 40
-122.394
  9
$NORTHDIRECTION
 40
0.0
  9
$TIMEZONE
 70
 -8000
  9
$LIGHTGLYPHDISPLAY
280
     1
  9
$TILEMODELIGHTSYNCH
280
     1
  9
$CMATERIAL
347
11
  9
$SOLIDHIST
280
     0
  9
$SHOWHIST
280
     1
  9
$DWFFRAME
280
     2
  9
$DGNFRAME
280
     0
  9
$REALWORLDSCALE
290
     1
  9
$INTERFERECOLOR
 62
     1
  9
$INTERFEREOBJVS
345
33
  9
$INTERFEREVPVS
346
30
  9
$CSHADOW
280
     0
  9
$SHADOWPLANELOCATION
 40
0.0
  0
ENDSEC
  0
SECTION
  2
CLASSES
  0
CLASS
  1
ACDBDICTIONARYWDFLT
  2
AcDbDictionaryWithDefault
  3
ObjectDBX Classes
 90
        0
 91
        1
280
     0
281
     0
  0
CLASS
  1
MATERIAL
  2
AcDbMaterial
  3
ObjectDBX Classes
 90
     1153
 91
        3
280
     0
281
     0
  0
CLASS
  1
VISUALSTYLE
  2
AcDbVisualStyle
  3
ObjectDBX Classes
 90
     4095
 91
       24
280
     0
281
     0
  0
CLASS
  1
SCALE
  2
AcDbScale
  3
ObjectDBX Classes
 90
     1153
 91
       17
280
     0
281
     0
  0
CLASS
  1
TABLESTYLE
  2
AcDbTableStyle
  3
ObjectDBX Classes
 90
     4095
 91
        1
280
     0
281
     0
  0
CLASS
  1
MLEADERSTYLE
  2
AcDbMLeaderStyle
  3
ACDB_MLEADERSTYLE_CLASS
 90
     4095
 91
        1
280
     0
281
     0
  0
CLASS
  1
ACDBSECTIONVIEWSTYLE
  2
AcDbSectionViewStyle
  3
ObjectDBX Classes
 90
     1025
 91
        1
280
     0
281
     0
  0
CLASS
  1
ACDBDETAILVIEWSTYLE
  2
AcDbDetailViewStyle
  3
ObjectDBX Classes
 90
     1025
 91
        1
280
     0
281
     0
  0
CLASS
  1
EXACXREFPANELOBJECT
  2
ExAcXREFPanelObject
  3
EXAC_ESW
 90
     1025
 91
        1
280
     0
281
     0
  0
CLASS
  1
NPOCOLLECTION
  2
AcDbImpNonPersistentObjectsCollection
  3
ObjectDBX Classes
 90
     1153
 91
        1
280
     0
281
     0
  0
CLASS
  1
DICTIONARYVAR
  2
AcDbDictionaryVar
  3
ObjectDBX Classes
 90
        0
 91
       16
280
     0
281
     0
  0
CLASS
  1
ACARRAYJIGENTITY
  2
AcArrayJigEntity
  3
ACAD_ARRAY
 90
      129
 91
       12
280
     0
281
     1
  0
CLASS
  1
ACDBASSOCNETWORK
  2
AcDbAssocNetwork
  3
ObjectDBX Classes
 90
     1025
 91
       12
280
     0
281
     0
  0
CLASS
  1
ACDBASSOCACTION
  2
AcDbAssocAction
  3
ObjectDBX Classes
 90
     1025
 91
        6
280
     0
281
     0
  0
CLASS
  1
ACDBASSOCARRAYACTIONBODY
  2
AcDbAssocArrayActionBody
  3
ObjectDBX Classes
 90
     1025
 91
        6
280
     0
281
     0
  0
CLASS
  1
ACDBASSOCVERTEXACTIONPARAM
  2
AcDbAssocVertexActionParam
  3
ObjectDBX Classes
 90
     1025
 91
       18
280
     0
281
     0
  0
CLASS
  1
ACDBASSOCEDGEACTIONPARAM
  2
AcDbAssocEdgeActionParam
  3
ObjectDBX Classes
 90
     1025
 91
        6
280
     0
281
     0
  0
CLASS
  1
ACDBASSOCDEPENDENCY
  2
AcDbAssocDependency
  3
ObjectDBX Classes
 90
     1025
 91
       24
280
     0
281
     0
  0
CLASS
  1
ACDBASSOCARRAYPATHPARAMETERS
  2
AcDbAssocArrayPathParameters
  3
ObjectDBX Classes
 90
     1025
 91
        0
280
     0
281
     0
  0
CLASS
  1
SORTENTSTABLE
  2
AcDbSortentsTable
  3
ObjectDBX Classes
 90
        0
 91
        9
280
     0
281
     0
  0
CLASS
  1
CELLSTYLEMAP
  2
AcDbCellStyleMap
  3
ObjectDBX Classes
 90
     1152
 91
        2
280
     0
281
     0
  0
ENDSEC
  0
SECTION
  2
TABLES
  0
TABLE
  2
VPORT
  5
8
330
0
100
AcDbSymbolTable
 70
     1
  0
VPORT
  5
57
330
8
100
AcDbSymbolTableRecord
100
AcDbViewportTableRecord
  2
*Active
 70
     0
 10
0.0
 20
0.0
 11
1.0
 21
1.0
 12
35.60573169279826
 22
5.662839975159144
 13
0.0
 23
0.0
 14
0.5
 24
0.5
 15
0.5
 25
0.5
 16
0.0
 26
0.0
 36
1.0
 17
0.0
 27
0.0
 37
0.0
 40
62.97601025354217
 41
1.899182561307901
 42
50.0
 43
0.0
 44
0.0
 50
0.0
 51
0.0
 71
     0
 72
  1000
 73
     1
 74
     3
 75
     0
 76
     0
 77
     0
 78
     0
281
     0
 65
     1
110
0.0
120
0.0
130
0.0
111
1.0
121
0.0
131
0.0
112
0.0
122
1.0
132
0.0
 79
     0
146
0.0
348
2F
 60
     3
 61
     5
292
     1
282
     1
141
0.0
142
0.0
 63
   250
421
  3355443
1001
ACAD_NAV_VCDISPLAY
1070
     1
  0
ENDTAB
  0
TABLE
  2
LTYPE
  5
5
330
0
100
AcDbSymbolTable
 70
     3
  0
LTYPE
  5
5B
330
5
100
AcDbSymbolTableRecord
100
AcDbLinetypeTableRecord
  2
ByBlock
 70
     0
  3

 72
    65
 73
     0
 40
0.0
  0
LTYPE
  5
5C
330
5
100
AcDbSymbolTableRecord
100
AcDbLinetypeTableRecord
  2
ByLayer
 70
     0
  3

 72
    65
 73
     0
 40
0.0
  0
LTYPE
  5
5D
330
5
100
AcDbSymbolTableRecord
100
AcDbLinetypeTableRecord
  2
Continuous
 70
     0
  3
Solid line
 72
    65
 73
     0
 40
0.0
  0
ENDTAB
  0
TABLE
  2
LAYER
  5
2
102
{ACAD_XDICTIONARY
360
12E
102
}
330
0
100
AcDbSymbolTable
 70
     1
  0
LAYER
  5
54
330
2
100
AcDbSymbolTableRecord
100
AcDbLayerTableRecord
  2
0
 70
     0
 62
     7
  6
Continuous
370
    -3
390
F
347
21
348
0
  0
ENDTAB
  0
TABLE
  2
STYLE
  5
3
330
0
100
AcDbSymbolTable
 70
     2
  0
STYLE
  5
55
330
3
100
AcDbSymbolTableRecord
100
AcDbTextStyleTableRecord
  2
Standard
 70
     0
 40
0.0
 41
1.0
 50
0.0
 71
     0
 42
1.979187114039831
  3
txt
  4

  0
STYLE
  5
5A
330
3
100
AcDbSymbolTableRecord
100
AcDbTextStyleTableRecord
  2
Annotative
 70
     0
 40
0.0
 41
1.0
 50
0.0
 71
     0
 42
0.2
  3
txt
  4

1001
AcadAnnotative
1000
AnnotativeData
1002
{
1070
     1
1070
     1
1002
}
  0
ENDTAB
  0
TABLE
  2
VIEW
  5
6
330
0
100
AcDbSymbolTable
 70
     8
  0
ENDTAB
  0
TABLE
  2
UCS
  5
7
330
0
100
AcDbSymbolTable
 70
     0
  0
ENDTAB
  0
TABLE
  2
APPID
  5
9
330
0
100
AcDbSymbolTable
 70
     5
  0
APPID
  5
56
330
9
100
AcDbSymbolTableRecord
100
AcDbRegAppTableRecord
  2
ACAD
 70
     0
  0
APPID
  5
5E
330
9
100
AcDbSymbolTableRecord
100
AcDbRegAppTableRecord
  2
AcadAnnotative
 70
     0
  0
APPID
  5
7A
330
9
100
AcDbSymbolTableRecord
100
AcDbRegAppTableRecord
  2
ACAD_NAV_VCDISPLAY
 70
     0
  0
APPID
  5
7E
330
9
100
AcDbSymbolTableRecord
100
AcDbRegAppTableRecord
  2
ACAD_EXEMPT_FROM_CAD_STANDARDS
 70
     0
  0
APPID
  5
DD
330
9
100
AcDbSymbolTableRecord
100
AcDbRegAppTableRecord
  2
ACAD_EDGEREF
 70
     0
  0
ENDTAB
  0
TABLE
  2
DIMSTYLE
  5
A
330
0
100
AcDbSymbolTable
 70
     3
100
AcDbDimStyleTable
 71
     1
340
58
  0
DIMSTYLE
105
58
330
A
100
AcDbSymbolTableRecord
100
AcDbDimStyleTableRecord
  2
Standard
 70
     0
340
55
  0
DIMSTYLE
105
59
330
A
100
AcDbSymbolTableRecord
100
AcDbDimStyleTableRecord
  2
Annotative
 70
     0
340
55
1001
AcadAnnotative
1000
AnnotativeData
1002
{
1070
     1
1070
     1
1002
}
  0
ENDTAB
  0
TABLE
  2
BLOCK_RECORD
  5
1
330
0
100
AcDbSymbolTable
 70
    22
  0
BLOCK_RECORD
  5
70
102
{ACAD_XDICTIONARY
360
E7
102
}
330
1
100
AcDbSymbolTableRecord
100
AcDbBlockTableRecord
  2
*Model_Space
340
73
 70
     0
280
     1
281
     0
  0
BLOCK_RECORD
  5
6C
330
1
100
AcDbSymbolTableRecord
100
AcDbBlockTableRecord
  2
*Paper_Space
340
6F
 70
     0
280
     1
281
     0
  0
BLOCK_RECORD
  5
74
330
1
100
AcDbSymbolTableRecord
100
AcDbBlockTableRecord
  2
*Paper_Space0
340
77
 70
     0
280
     1
281
     0
  0
BLOCK_RECORD
  5
DE
330
1
100
AcDbSymbolTableRecord
100
AcDbBlockTableRecord
  2
*U1
340
0
 70
     0
280
     1
281
     0
  0
BLOCK_RECORD
  5
E1
330
1
100
AcDbSymbolTableRecord
100
AcDbBlockTableRecord
  2
*U2
340
0
 70
     0
280
     1
281
     1
  0
BLOCK_RECORD
  5
145
330
1
100
AcDbSymbolTableRecord
100
AcDbBlockTableRecord
  2
*U4
340
0
 70
     0
280
     1
281
     0
  0
BLOCK_RECORD
  5
148
330
1
100
AcDbSymbolTableRecord
100
AcDbBlockTableRecord
  2
*U5
340
0
 70
     0
280
     1
281
     1
  0
BLOCK_RECORD
  5
1A8
330
1
100
AcDbSymbolTableRecord
100
AcDbBlockTableRecord
  2
*U6
340
0
 70
     0
280
     1
281
     0
  0
BLOCK_RECORD
  5
1AB
330
1
100
AcDbSymbolTableRecord
100
AcDbBlockTableRecord
  2
*U7
340
0
 70
     0
280
     1
281
     1
  0
BLOCK_RECORD
  5
1E9
330
1
100
AcDbSymbolTableRecord
100
AcDbBlockTableRecord
  2
*U8
340
0
 70
     0
280
     1
281
     0
  0
BLOCK_RECORD
  5
1EC
330
1
100
AcDbSymbolTableRecord
100
AcDbBlockTableRecord
  2
*U9
340
0
 70
     0
280
     1
281
     1
  0
BLOCK_RECORD
  5
23F
330
1
100
AcDbSymbolTableRecord
100
AcDbBlockTableRecord
  2
*U10
340
0
 70
     0
280
     1
281
     0
  0
BLOCK_RECORD
  5
242
330
1
100
AcDbSymbolTableRecord
100
AcDbBlockTableRecord
  2
*U11
340
0
 70
     0
280
     1
281
     1
  0
BLOCK_RECORD
  5
27C
330
1
100
AcDbSymbolTableRecord
100
AcDbBlockTableRecord
  2
*U12
340
0
 70
     0
280
     1
281
     0
  0
BLOCK_RECORD
  5
27F
330
1
100
AcDbSymbolTableRecord
100
AcDbBlockTableRecord
  2
*U13
340
0
 70
     0
280
     1
281
     1
  0
BLOCK_RECORD
  5
471
102
{ACAD_XDICTIONARY
360
496
102
}
330
1
100
AcDbSymbolTableRecord
100
AcDbBlockTableRecord
  2
A$C1F021A92
340
0
 70
     1
280
     1
281
     0
  0
ENDTAB
  0
ENDSEC
  0
SECTION
  2
BLOCKS
  0
BLOCK
  5
71
330
70
100
AcDbEntity
  8
0
100
AcDbBlockBegin
  2
*Model_Space
 70
     0
 10
0.0
 20
0.0
 30
0.0
  3
*Model_Space
  1

  0
ENDBLK
  5
72
330
70
100
AcDbEntity
  8
0
100
AcDbBlockEnd
  0
BLOCK
  5
6D
330
6C
100
AcDbEntity
 67
     1
  8
0
100
AcDbBlockBegin
  2
*Paper_Space
 70
     0
 10
0.0
 20
0.0
 30
0.0
  3
*Paper_Space
  1

  0
ENDBLK
  5
6E
330
6C
100
AcDbEntity
 67
     1
  8
0
100
AcDbBlockEnd
  0
BLOCK
  5
75
330
74
100
AcDbEntity
 67
     1
  8
0
100
AcDbBlockBegin
  2
*Paper_Space0
 70
     0
 10
0.0
 20
0.0
 30
0.0
  3
*Paper_Space0
  1

  0
ENDBLK
  5
76
330
74
100
AcDbEntity
 67
     1
  8
0
100
AcDbBlockEnd
  0
BLOCK
  5
DF
330
DE
100
AcDbEntity
  8
0
100
AcDbBlockBegin
  2
*U1
 70
     1
 10
0.0
 20
0.0
 30
0.0
  3
*U1
  1

  0
CIRCLE
  5
E5
330
DE
100
AcDbEntity
  8
0
100
AcDbCircle
 10
0.3744615075004241
 20
0.0200892857142847
 30
0.0
 40
0.15625
  0
ENDBLK
  5
E0
330
DE
100
AcDbEntity
  8
0
100
AcDbBlockEnd
  0
BLOCK
  5
E2
330
E1
100
AcDbEntity
  8
0
100
AcDbBlockBegin
  2
*U2
 70
     1
 10
0.0
 20
0.0
 30
0.0
  3
*U2
  1

  0
ENDBLK
  5
E3
330
E1
100
AcDbEntity
  8
0
100
AcDbBlockEnd
  0
BLOCK
  5
146
330
145
100
AcDbEntity
  8
0
100
AcDbBlockBegin
  2
*U4
 70
     1
 10
0.0
 20
0.0
 30
0.0
  3
*U4
  1

  0
CIRCLE
  5
14C
330
145
100
AcDbEntity
  8
0
100
AcDbCircle
 10
0.3746743377588064
 20
0.015625
 30
0.0
 40
0.1563
  0
ENDBLK
  5
147
330
145
100
AcDbEntity
  8
0
100
AcDbBlockEnd
  0
BLOCK
  5
149
330
148
100
AcDbEntity
  8
0
100
AcDbBlockBegin
  2
*U5
 70
     1
 10
0.0
 20
0.0
 30
0.0
  3
*U5
  1

  0
ENDBLK
  5
14A
330
148
100
AcDbEntity
  8
0
100
AcDbBlockEnd
  0
BLOCK
  5
1A9
330
1A8
100
AcDbEntity
  8
0
100
AcDbBlockBegin
  2
*U6
 70
     1
 10
0.0
 20
0.0
 30
0.0
  3
*U6
  1

  0
CIRCLE
  5
1AF
330
1A8
100
AcDbEntity
  8
0
100
AcDbCircle
 10
2.65921744965853
 20
0.8697710050973928
 30
0.0
 40
0.28125
  0
ENDBLK
  5
1AA
330
1A8
100
AcDbEntity
  8
0
100
AcDbBlockEnd
  0
BLOCK
  5
1AC
330
1AB
100
AcDbEntity
  8
0
100
AcDbBlockBegin
  2
*U7
 70
     1
 10
0.0
 20
0.0
 30
0.0
  3
*U7
  1

  0
ENDBLK
  5
1AD
330
1AB
100
AcDbEntity
  8
0
100
AcDbBlockEnd
  0
BLOCK
  5
1EA
330
1E9
100
AcDbEntity
  8
0
100
AcDbBlockBegin
  2
*U8
 70
     1
 10
0.0
 20
0.0
 30
0.0
  3
*U8
  1

  0
CIRCLE
  5
1F0
330
1E9
100
AcDbEntity
  8
0
100
AcDbCircle
 10
0.49727175005017
 20
0.0206421074999987
 30
0.0
 40
0.28125
  0
ENDBLK
  5
1EB
330
1E9
100
AcDbEntity
  8
0
100
AcDbBlockEnd
  0
BLOCK
  5
1ED
330
1EC
100
AcDbEntity
  8
0
100
AcDbBlockBegin
  2
*U9
 70
     1
 10
0.0
 20
0.0
 30
0.0
  3
*U9
  1

  0
ENDBLK
  5
1EE
330
1EC
100
AcDbEntity
  8
0
100
AcDbBlockEnd
  0
BLOCK
  5
240
330
23F
100
AcDbEntity
  8
0
100
AcDbBlockBegin
  2
*U10
 70
     1
 10
0.0
 20
0.0
 30
0.0
  3
*U10
  1

  0
CIRCLE
  5
246
330
23F
100
AcDbEntity
  8
0
100
AcDbCircle
 10
4.382881398073632
 20
1.902396962806156
 30
0.0
 40
0.59375
  0
ENDBLK
  5
241
330
23F
100
AcDbEntity
  8
0
100
AcDbBlockEnd
  0
BLOCK
  5
243
330
242
100
AcDbEntity
  8
0
100
AcDbBlockBegin
  2
*U11
 70
     1
 10
0.0
 20
0.0
 30
0.0
  3
*U11
  1

  0
ENDBLK
  5
244
330
242
100
AcDbEntity
  8
0
100
AcDbBlockEnd
  0
BLOCK
  5
27D
330
27C
100
AcDbEntity
  8
0
100
AcDbBlockBegin
  2
*U12
 70
     1
 10
0.0
 20
0.0
 30
0.0
  3
*U12
  1

  0
CIRCLE
  5
283
330
27C
100
AcDbEntity
  8
0
100
AcDbCircle
 10
5.794491865991908
 20
4.443123635302482
 30
0.0
 40
0.1875
  0
ENDBLK
  5
27E
330
27C
100
AcDbEntity
  8
0
100
AcDbBlockEnd
  0
BLOCK
  5
280
330
27F
100
AcDbEntity
  8
0
100
AcDbBlockBegin
  2
*U13
 70
     1
 10
0.0
 20
0.0
 30
0.0
  3
*U13
  1

  0
ENDBLK
  5
281
330
27F
100
AcDbEntity
  8
0
100
AcDbBlockEnd
  0
BLOCK
  5
498
330
471
100
AcDbEntity
  8
0
100
AcDbBlockBegin
  2
A$C1F021A92
 70
     0
 10
0.0
 20
0.0
 30
0.0
  3
A$C1F021A92
  1

  0
ARC
  5
472
330
471
100
AcDbEntity
  8
0
100
AcDbCircle
 10
7.000000025088613
 20
-0.0000000162981486
 30
0.0
 40
4.0
100
AcDbArc
 50
0.0
 51
180.0
  0
CIRCLE
  5
473
330
471
100
AcDbEntity
  8
0
100
AcDbCircle
 10
11.48437502508861
 20
0.3746743214606578
 30
0.0
 40
0.1563
  0
CIRCLE
  5
474
330
471
100
AcDbEntity
  8
0
100
AcDbCircle
 10
11.42108171878612
 20
0.8390689067664647
 30
0.0
 40
0.1563
  0
CIRCLE
  5
475
330
471
100
AcDbEntity
  8
0
100
AcDbCircle
 10
11.30982931002956
 20
1.294361422661376
 30
0.0
 40
0.1563
  0
CIRCLE
  5
476
330
471
100
AcDbEntity
  8
0
100
AcDbCircle
 10
11.15182464502526
 20
1.73561293747003
 30
0.0
 40
0.1563
  0
CIRCLE
  5
477
330
471
100
AcDbEntity
  8
0
100
AcDbCircle
 10
10.94878173008256
 20
2.158036833782285
 30
0.0
 40
0.1563
  0
CIRCLE
  5
478
330
471
100
AcDbEntity
  8
0
100
AcDbCircle
 10
3.03995648351412
 20
2.13730088643742
 30
0.0
 40
0.1563
  0
CIRCLE
  5
479
330
471
100
AcDbEntity
  8
0
100
AcDbCircle
 10
2.83913142974628
 20
1.713818098991228
 30
0.0
 40
0.1563
  0
CIRCLE
  5
47A
330
471
100
AcDbEntity
  8
0
100
AcDbCircle
 10
2.683442733342375
 20
1.271744119553274
 30
0.0
 40
0.1563
  0
CIRCLE
  5
47B
330
471
100
AcDbEntity
  8
0
100
AcDbCircle
 10
2.574579277399139
 20
0.8158744874827137
 30
0.0
 40
0.1563
  0
CIRCLE
  5
47C
330
471
100
AcDbEntity
  8
0
100
AcDbCircle
 10
2.513721993190599
 20
0.3511543949078204
 30
0.0
 40
0.1563
  0
CIRCLE
  5
47D
330
471
100
AcDbEntity
  8
0
100
AcDbCircle
 10
10.63022901999122
 20
2.659217433360382
 30
0.0
 40
0.28125
  0
CIRCLE
  5
47E
330
471
100
AcDbEntity
  8
0
100
AcDbCircle
 10
10.07091621167407
 20
3.289296834849141
 30
0.0
 40
0.28125
  0
CIRCLE
  5
47F
330
471
100
AcDbEntity
  8
0
100
AcDbCircle
 10
9.403957422735391
 20
3.804075276108589
 30
0.0
 40
0.28125
  0
CIRCLE
  5
480
330
471
100
AcDbEntity
  8
0
100
AcDbCircle
 10
8.652731810569019
 20
4.185508034734947
 30
0.0
 40
0.28125
  0
CIRCLE
  5
481
330
471
100
AcDbEntity
  8
0
100
AcDbCircle
 10
7.843572369231547
 20
4.420224604713473
 30
0.0
 40
0.28125
  0
CIRCLE
  5
482
330
471
100
AcDbEntity
  8
0
100
AcDbCircle
 10
7.004842869093011
 20
4.499997377796884
 30
0.0
 40
0.28125
  0
CIRCLE
  5
483
330
471
100
AcDbEntity
  8
0
100
AcDbCircle
 10
6.165943610921307
 20
4.422030048953162
 30
0.0
 40
0.28125
  0
CIRCLE
  5
484
330
471
100
AcDbEntity
  8
0
100
AcDbCircle
 10
5.35628084607655
 20
4.189055636298036
 30
0.0
 40
0.28125
  0
CIRCLE
  5
485
330
471
100
AcDbEntity
  8
0
100
AcDbCircle
 10
4.604235988117068
 20
3.809240679582586
 30
0.0
 40
0.28125
  0
CIRCLE
  5
486
330
471
100
AcDbEntity
  8
0
100
AcDbCircle
 10
3.936170748430509
 20
3.295898975402419
 30
0.0
 40
0.28125
  0
CIRCLE
  5
487
330
471
100
AcDbEntity
  8
0
100
AcDbCircle
 10
3.375503069245111
 20
2.667024883675852
 30
0.0
 40
0.28125
  0
CIRCLE
  5
488
330
471
100
AcDbEntity
  8
0
100
AcDbCircle
 10
12.97935791758861
 20
0.4972717337520214
 30
0.0
 40
0.28125
  0
CIRCLE
  5
489
330
471
100
AcDbEntity
  8
0
100
AcDbCircle
 10
12.85063461861758
 20
1.330441584450313
 30
0.0
 40
0.28125
  0
CIRCLE
  5
48A
330
471
100
AcDbEntity
  8
0
100
AcDbCircle
 10
12.60640326670855
 20
2.137344759902791
 30
0.0
 40
0.28125
  0
CIRCLE
  5
48B
330
471
100
AcDbEntity
  8
0
100
AcDbCircle
 10
12.25148567861909
 20
2.902050712197761
 30
0.0
 40
0.28125
  0
CIRCLE
  5
48C
330
471
100
AcDbEntity
  8
0
100
AcDbCircle
 10
11.79288893006008
 20
3.609461985801532
 30
0.0
 40
0.28125
  0
CIRCLE
  5
48D
330
471
100
AcDbEntity
  8
0
100
AcDbCircle
 10
2.208202357693664
 20
3.610910549576964
 30
0.0
 40
0.28125
  0
CIRCLE
  5
48E
330
471
100
AcDbEntity
  8
0
100
AcDbCircle
 10
1.749391803515583
 20
2.903637926619302
 30
0.0
 40
0.28125
  0
CIRCLE
  5
48F
330
471
100
AcDbEntity
  8
0
100
AcDbCircle
 10
1.394243086821752
 20
2.139039288874421
 30
0.0
 40
0.2812499999999999
  0
CIRCLE
  5
490
330
471
100
AcDbEntity
  8
0
100
AcDbCircle
 10
1.149767846454581
 20
1.332209973183663
 30
0.0
 40
0.28125
  0
CIRCLE
  5
491
330
471
100
AcDbEntity
  8
0
100
AcDbCircle
 10
1.020792714218695
 20
0.4990790692583902
 30
0.0
 40
0.28125
  0
CIRCLE
  5
492
330
471
100
AcDbEntity
  8
0
100
AcDbCircle
 10
6.735404670887054
 20
5.994162919303068
 30
0.0
 40
0.1875
  0
CIRCLE
  5
493
330
471
100
AcDbEntity
  8
0
100
AcDbCircle
 10
6.175436598461452
 20
5.943071172529172
 30
0.0
 40
0.1875
  0
CIRCLE
  5
494
330
471
100
AcDbEntity
  8
0
100
AcDbCircle
 10
5.622710359890909
 20
5.839783642206697
 30
0.0
 40
0.1875
  0
LWPOLYLINE
  5
495
330
471
100
AcDbEntity
  8
0
100
AcDbPolyline
 90
        2
 70
     1
 43
0.0
 10
0.0000000250886139
 20
-0.0000000162981477
 10
14.00000002508861
 20
-0.0000000162981486
 42
0.9999999999999998
  0
ENDBLK
  5
499
330
471
100
AcDbEntity
  8
0
100
AcDbBlockEnd
  0
ENDSEC
  0
SECTION
  2
ENTITIES
  0
ARC
  5
87
330
70
100
AcDbEntity
  8
0
100
AcDbCircle
 10
5.935671134686646
 20
5.063265308098184
 30
0.0
 40
5.0
100
AcDbArc
 50
0.0
 51
180.0
  0
ARC
  5
88
330
70
100
AcDbEntity
  8
0
100
AcDbCircle
 10
5.935671134686646
 20
5.063265308098184
 30
0.0
 40
4.0
100
AcDbArc
 50
0.0
 51
180.0
  0
ARC
  5
8B
330
70
100
AcDbEntity
  8
0
100
AcDbCircle
 10
5.935671134686646
 20
5.063265308098184
 30
0.0
 40
3.0
100
AcDbArc
 50
0.0
 51
180.0
  0
LINE
  5
8C
330
70
100
AcDbEntity
  8
0
100
AcDbLine
 10
5.935671134686646
 20
7.691624555097964
 30
0.0
 11
5.935671134686646
 21
5.438265308098185
 31
0.0
  0
LINE
  5
8D
330
70
100
AcDbEntity
  8
0
100
AcDbLine
 10
5.935671134686646
 20
5.063265308098184
 30
0.0
 11
2.935671134686646
 21
5.063265308098184
 31
0.0
  0
LINE
  5
8E
330
70
100
AcDbEntity
  8
0
100
AcDbLine
 10
5.935671134686646
 20
6.563265308098184
 30
0.0
 11
5.935671134686646
 21
7.691624555097964
 31
0.0
  0
LINE
  5
8F
330
70
100
AcDbEntity
  8
0
100
AcDbLine
 10
5.935671134686646
 20
6.563265308098184
 30
0.0
 11
5.935671134686646
 21
5.438265308098185
 31
0.0
  0
LINE
  5
91
330
70
100
AcDbEntity
  8
0
100
AcDbLine
 10
5.935671134686646
 20
7.691624555097964
 30
0.0
 11
5.935671134686646
 21
7.313265308098184
 31
0.0
  0
LINE
  5
92
330
70
100
AcDbEntity
  8
0
100
AcDbLine
 10
5.560671134686647
 20
5.438265308098185
 30
0.0
 11
3.334200909738981
 21
5.438265308098184
 31
0.0
  0
LINE
  5
93
330
70
100
AcDbEntity
  8
0
100
AcDbLine
 10
5.935671134686646
 20
5.063265308098184
 30
0.0
 11
4.435671134686646
 21
5.063265308098184
 31
0.0
  0
LINE
  5
94
330
70
100
AcDbEntity
  8
0
100
AcDbLine
 10
4.435671134686646
 20
5.063265308098184
 30
0.0
 11
5.185671134686646
 21
5.063265308098184
 31
0.0
  0
LINE
  5
95
330
70
100
AcDbEntity
  8
0
100
AcDbLine
 10
5.185671134686646
 20
5.063265308098184
 30
0.0
 11
5.935671134686646
 21
5.063265308098184
 31
0.0
  0
LINE
  5
99
330
70
100
AcDbEntity
  8
0
100
AcDbLine
 10
4.259936022212814
 20
5.438265308098184
 30
0.0
 11
3.609568465975898
 21
5.438265308098184
 31
0.0
  0
POINT
  5
9B
330
70
100
AcDbEntity
  8
0
100
AcDbPoint
 10
5.249296756534091
 20
5.063265308098184
 30
0.0
  0
POINT
  5
9C
330
70
100
AcDbEntity
  8
0
100
AcDbPoint
 10
4.478088215918276
 20
5.063265308098184
 30
0.0
  0
POINT
  5
9D
330
70
100
AcDbEntity
  8
0
100
AcDbPoint
 10
3.706879675302461
 20
5.063265308098184
 30
0.0
  0
ARC
  5
AE
330
70
100
AcDbEntity
  8
0
100
AcDbCircle
 10
5.935671134686646
 20
5.063265308098184
 30
0.0
 40
2.62835924699978
100
AcDbArc
 50
98.20264122596618
 51
171.7973587740338
  0
CIRCLE
  5
BE
330
70
100
AcDbEntity
  8
0
100
AcDbCircle
 10
9.419588873895278
 20
5.398402871536556
 30
0.0
 40
0.15625
  0
CIRCLE
  5
F7
330
70
100
AcDbEntity
  8
0
100
AcDbCircle
 10
9.34363983215991
 20
5.860604230415671
 30
0.0
 40
0.15625
  0
CIRCLE
  5
F8
330
70
100
AcDbEntity
  8
0
100
AcDbCircle
 10
9.206653833721787
 20
6.308525193669384
 30
0.0
 40
0.15625
  0
CIRCLE
  5
F9
330
70
100
AcDbEntity
  8
0
100
AcDbCircle
 10
9.011084307352655
 20
6.734143465652596
 30
0.0
 40
0.15625
  0
CIRCLE
  5
FA
330
70
100
AcDbEntity
  8
0
100
AcDbCircle
 10
8.760433916889242
 20
7.129836193474022
 30
0.0
 40
0.15625
  0
CIRCLE
  5
FB
330
70
100
AcDbEntity
  8
0
100
AcDbCircle
 10
8.459191828280047
 20
7.488516492822331
 30
0.0
 40
0.15625
  0
CIRCLE
  5
FC
330
70
100
AcDbEntity
  8
0
100
AcDbCircle
 10
8.112753308310576
 20
7.803760374557699
 30
0.0
 40
0.15625
  0
CIRCLE
  5
FD
330
70
100
AcDbEntity
  8
0
100
AcDbCircle
 10
7.727323094999452
 20
8.069921798804646
 30
0.0
 40
0.15625
  0
CIRCLE
  5
FE
330
70
100
AcDbEntity
  8
0
100
AcDbCircle
 10
7.309804270308451
 20
8.282233795919431
 30
0.0
 40
0.15625
  0
CIRCLE
  5
FF
330
70
100
AcDbEntity
  8
0
100
AcDbCircle
 10
6.867674625463807
 20
8.436893843248313
 30
0.0
 40
0.15625
  0
CIRCLE
  5
100
330
70
100
AcDbEntity
  8
0
100
AcDbCircle
 10
6.408852733194604
 20
8.531131968573106
 30
0.0
 40
0.15625
  0
CIRCLE
  5
101
330
70
100
AcDbEntity
  8
0
100
AcDbCircle
 10
5.941556125543752
 20
8.563260360506493
 30
0.0
 40
0.15625
  0
CIRCLE
  5
102
330
70
100
AcDbEntity
  8
0
100
AcDbCircle
 10
5.474154117296816
 20
8.532703597311531
 30
0.0
 40
0.15625
  0
CIRCLE
  5
103
330
70
100
AcDbEntity
  8
0
100
AcDbCircle
 10
5.015017910971383
 20
8.440008952745014
 30
0.0
 40
0.15625
  0
CIRCLE
  5
104
330
70
100
AcDbEntity
  8
0
100
AcDbCircle
 10
4.572370667996999
 20
8.286836594346379
 30
0.0
 40
0.15625
  0
CIRCLE
  5
105
330
70
100
AcDbEntity
  8
0
100
AcDbCircle
 10
4.154140231321294
 20
8.075929849721475
 30
0.0
 40
0.15625
  0
CIRCLE
  5
106
330
70
100
AcDbEntity
  8
0
100
AcDbCircle
 10
3.767817137190711
 20
7.811066073354089
 30
0.0
 40
0.15625
  0
CIRCLE
  5
107
330
70
100
AcDbEntity
  8
0
100
AcDbCircle
 10
3.420320459124669
 20
7.496988993924074
 30
0.0
 40
0.15625
  0
CIRCLE
  5
108
330
70
100
AcDbEntity
  8
0
100
AcDbCircle
 10
3.117873886827008
 20
7.139323753796354
 30
0.0
 40
0.15625
  0
CIRCLE
  5
109
330
70
100
AcDbEntity
  8
0
100
AcDbCircle
 10
2.865894259469966
 20
6.744476162329433
 30
0.0
 40
0.15625
  0
CIRCLE
  5
10A
330
70
100
AcDbEntity
  8
0
100
AcDbCircle
 10
2.668894549727372
 20
6.319517967383676
 30
0.0
 40
0.15625
  0
CIRCLE
  5
10B
330
70
100
AcDbEntity
  8
0
100
AcDbCircle
 10
2.530403036119778
 20
5.872060199824659
 30
0.0
 40
0.15625
  0
CIRCLE
  5
10C
330
70
100
AcDbEntity
  8
0
100
AcDbCircle
 10
2.452900111300449
 20
5.410116859430325
 30
0.0
 40
0.15625
  0
CIRCLE
  5
143
330
70
100
AcDbEntity
  8
0
100
AcDbCircle
 10
10.42004613468664
 20
5.437939645856991
 30
0.0
 40
0.1563
  0
CIRCLE
  5
15D
330
70
100
AcDbEntity
  8
0
100
AcDbCircle
 10
10.35675282838415
 20
5.902334231162797
 30
0.0
 40
0.1563
  0
CIRCLE
  5
15E
330
70
100
AcDbEntity
  8
0
100
AcDbCircle
 10
10.2455004196276
 20
6.357626747057709
 30
0.0
 40
0.1563
  0
CIRCLE
  5
15F
330
70
100
AcDbEntity
  8
0
100
AcDbCircle
 10
10.08749575462329
 20
6.798878261866363
 30
0.0
 40
0.1563
  0
CIRCLE
  5
160
330
70
100
AcDbEntity
  8
0
100
AcDbCircle
 10
9.884452839680598
 20
7.221302158178618
 30
0.0
 40
0.1563
  0
CIRCLE
  5
175
330
70
100
AcDbEntity
  8
0
100
AcDbCircle
 10
1.975627593112153
 20
7.200566210833754
 30
0.0
 40
0.1563
  0
CIRCLE
  5
176
330
70
100
AcDbEntity
  8
0
100
AcDbCircle
 10
1.774802539344313
 20
6.777083423387561
 30
0.0
 40
0.1563
  0
CIRCLE
  5
177
330
70
100
AcDbEntity
  8
0
100
AcDbCircle
 10
1.619113842940408
 20
6.335009443949608
 30
0.0
 40
0.1563
  0
CIRCLE
  5
178
330
70
100
AcDbEntity
  8
0
100
AcDbCircle
 10
1.510250386997172
 20
5.879139811879046
 30
0.0
 40
0.1563
  0
CIRCLE
  5
179
330
70
100
AcDbEntity
  8
0
100
AcDbCircle
 10
1.449393102788632
 20
5.414419719304153
 30
0.0
 40
0.1563
  0
CIRCLE
  5
1A6
330
70
100
AcDbEntity
  8
0
100
AcDbCircle
 10
9.565900129589254
 20
7.722482757756715
 30
0.0
 40
0.28125
  0
CIRCLE
  5
1C0
330
70
100
AcDbEntity
  8
0
100
AcDbCircle
 10
9.006587321272103
 20
8.352562159245474
 30
0.0
 40
0.28125
  0
CIRCLE
  5
1C1
330
70
100
AcDbEntity
  8
0
100
AcDbCircle
 10
8.339628532333424
 20
8.867340600504922
 30
0.0
 40
0.28125
  0
CIRCLE
  5
1C2
330
70
100
AcDbEntity
  8
0
100
AcDbCircle
 10
7.588402920167053
 20
9.248773359131281
 30
0.0
 40
0.28125
  0
CIRCLE
  5
1C3
330
70
100
AcDbEntity
  8
0
100
AcDbCircle
 10
6.77924347882958
 20
9.483489929109806
 30
0.0
 40
0.28125
  0
CIRCLE
  5
1C4
330
70
100
AcDbEntity
  8
0
100
AcDbCircle
 10
5.940513978691044
 20
9.563262702193217
 30
0.0
 40
0.28125
  0
CIRCLE
  5
1C5
330
70
100
AcDbEntity
  8
0
100
AcDbCircle
 10
5.10161472051934
 20
9.485295373349496
 30
0.0
 40
0.28125
  0
CIRCLE
  5
1C6
330
70
100
AcDbEntity
  8
0
100
AcDbCircle
 10
4.291951955674583
 20
9.252320960694369
 30
0.0
 40
0.28125
  0
CIRCLE
  5
1C7
330
70
100
AcDbEntity
  8
0
100
AcDbCircle
 10
3.539907097715101
 20
8.872506003978919
 30
0.0
 40
0.28125
  0
CIRCLE
  5
1C8
330
70
100
AcDbEntity
  8
0
100
AcDbCircle
 10
2.871841858028542
 20
8.359164299798752
 30
0.0
 40
0.28125
  0
CIRCLE
  5
1C9
330
70
100
AcDbEntity
  8
0
100
AcDbCircle
 10
2.311174178843144
 20
7.730290208072185
 30
0.0
 40
0.28125
  0
CIRCLE
  5
1E7
330
70
100
AcDbEntity
  8
0
100
AcDbCircle
 10
11.91502902718664
 20
5.560537058148354
 30
0.0
 40
0.28125
  0
CIRCLE
  5
201
330
70
100
AcDbEntity
  8
0
100
AcDbCircle
 10
11.78630572821562
 20
6.393706908846646
 30
0.0
 40
0.28125
  0
CIRCLE
  5
202
330
70
100
AcDbEntity
  8
0
100
AcDbCircle
 10
11.54207437630659
 20
7.200610084299124
 30
0.0
 40
0.28125
  0
CIRCLE
  5
203
330
70
100
AcDbEntity
  8
0
100
AcDbCircle
 10
11.18715678821712
 20
7.965316036594094
 30
0.0
 40
0.28125
  0
CIRCLE
  5
204
330
70
100
AcDbEntity
  8
0
100
AcDbCircle
 10
10.72856003965812
 20
8.672727310197865
 30
0.0
 40
0.28125
  0
CIRCLE
  5
211
330
70
100
AcDbEntity
  8
0
100
AcDbCircle
 10
1.143873467291696
 20
8.674175873973297
 30
0.0
 40
0.28125
  0
CIRCLE
  5
212
330
70
100
AcDbEntity
  8
0
100
AcDbCircle
 10
0.6850629131136162
 20
7.966903251015636
 30
0.0
 40
0.28125
  0
CIRCLE
  5
213
330
70
100
AcDbEntity
  8
0
100
AcDbCircle
 10
0.3299141964197853
 20
7.202304613270754
 30
0.0
 40
0.2812499999999999
  0
CIRCLE
  5
214
330
70
100
AcDbEntity
  8
0
100
AcDbCircle
 10
0.0854389560526149
 20
6.395475297579996
 30
0.0
 40
0.28125
  0
CIRCLE
  5
215
330
70
100
AcDbEntity
  8
0
100
AcDbCircle
 10
-0.0435361761832715
 20
5.562344393654723
 30
0.0
 40
0.28125
  0
CIRCLE
  5
257
330
70
100
AcDbEntity
  8
0
100
AcDbCircle
 10
8.571886882750398
 20
10.45310450140078
 30
0.0
 40
0.59375
  0
CIRCLE
  5
25A
330
70
100
AcDbEntity
  8
0
100
AcDbCircle
 10
3.403245083921465
 20
10.5026419541309
 30
0.0
 40
0.59375
  0
CIRCLE
  5
25B
330
70
100
AcDbEntity
  8
0
100
AcDbCircle
 10
1.922826191072365
 20
9.523879106501892
 30
0.0
 40
0.59375
  0
CIRCLE
  5
26C
330
70
100
AcDbEntity
  8
0
100
AcDbCircle
 10
9.94987896984993
 20
9.522652648990852
 30
0.0
 40
0.59375
  0
CIRCLE
  5
27A
330
70
100
AcDbEntity
  8
0
100
AcDbCircle
 10
7.345192412971869
 20
10.89535325034162
 30
0.0
 40
0.1875
  0
CIRCLE
  5
294
330
70
100
AcDbEntity
  8
0
100
AcDbCircle
 10
6.793045052323562
 20
11.00169186446445
 30
0.0
 40
0.1875
  0
CIRCLE
  5
295
330
70
100
AcDbEntity
  8
0
100
AcDbCircle
 10
6.233367695482496
 20
11.05587548711789
 30
0.0
 40
0.1875
  0
CIRCLE
  5
296
330
70
100
AcDbEntity
  8
0
100
AcDbCircle
 10
5.671075780485087
 20
11.0574282436994
 30
0.0
 40
0.1875
  0
CIRCLE
  5
297
330
70
100
AcDbEntity
  8
0
100
AcDbCircle
 10
5.111107708059485
 20
11.0063364969255
 30
0.0
 40
0.1875
  0
CIRCLE
  5
298
330
70
100
AcDbEntity
  8
0
100
AcDbCircle
 10
4.558381469488942
 20
10.90304896660303
 30
0.0
 40
0.1875
  0
LWPOLYLINE
  5
2E4
330
70
100
AcDbEntity
  8
0
100
AcDbPolyline
 90
        4
 70
     1
 43
0.0
 10
6.23384076072292
 20
5.401603981845758
 10
6.54634076072292
 20
5.401603981845758
 10
6.54634076072292
 20
7.651603981845758
 10
6.23384076072292
 20
7.651603981845758
  0
LWPOLYLINE
  5
2F8
330
70
100
AcDbEntity
  8
0
100
AcDbPolyline
 90
        4
 70
     1
 43
0.0
 10
6.773153181577193
 20
5.401603969590592
 10
7.085653181577193
 20
5.401603969590592
 10
7.075357691938869
 20
7.39481361316966
 10
6.762857691938869
 20
7.39481361316966
  0
CIRCLE
  5
2FB
330
70
100
AcDbEntity
  8
0
100
AcDbCircle
 10
7.800371134686646
 20
6.217350250019
 30
0.0
 40
0.1563
  0
LWPOLYLINE
  5
301
330
70
100
AcDbEntity
  8
0
100
AcDbPolyline
 90
        3
 70
     1
 43
0.0
 10
5.935671134686646
 20
5.438265308098185
 10
5.935671134686646
 20
7.691624555097964
 42
0.3728772225407042
 10
3.334200909738982
 20
5.438265308098184
  0
LWPOLYLINE
  5
302
330
70
100
AcDbEntity
  8
0
100
AcDbPolyline
 90
        2
 70
     1
 43
0.0
 10
-1.064328865313353
 20
5.063265308098185
 10
12.93567113468665
 20
5.063265308098184
 42
0.9999999999999998
  0
CIRCLE
  5
325
330
70
100
AcDbEntity
  8
0
100
AcDbCircle
 10
9.760587843545508
 20
-2.525958173865334
 30
0.0
 40
0.15625
  0
CIRCLE
  5
326
330
70
100
AcDbEntity
  8
0
100
AcDbCircle
 10
9.684638801810139
 20
-2.063756814986219
 30
0.0
 40
0.15625
  0
CIRCLE
  5
327
330
70
100
AcDbEntity
  8
0
100
AcDbCircle
 10
9.547652803372017
 20
-1.615835851732506
 30
0.0
 40
0.15625
  0
CIRCLE
  5
328
330
70
100
AcDbEntity
  8
0
100
AcDbCircle
 10
9.352083277002884
 20
-1.190217579749295
 30
0.0
 40
0.15625
  0
CIRCLE
  5
329
330
70
100
AcDbEntity
  8
0
100
AcDbCircle
 10
9.101432886539472
 20
-0.7945248519278687
 30
0.0
 40
0.15625
  0
CIRCLE
  5
32A
330
70
100
AcDbEntity
  8
0
100
AcDbCircle
 10
8.800190797930277
 20
-0.4358445525795603
 30
0.0
 40
0.15625
  0
CIRCLE
  5
32B
330
70
100
AcDbEntity
  8
0
100
AcDbCircle
 10
8.453752277960806
 20
-0.1206006708441913
 30
0.0
 40
0.15625
  0
CIRCLE
  5
32C
330
70
100
AcDbEntity
  8
0
100
AcDbCircle
 10
8.068322064649681
 20
0.145560753402755
 30
0.0
 40
0.15625
  0
CIRCLE
  5
32D
330
70
100
AcDbEntity
  8
0
100
AcDbCircle
 10
7.65080323995868
 20
0.3578727505175401
 30
0.0
 40
0.15625
  0
CIRCLE
  5
32E
330
70
100
AcDbEntity
  8
0
100
AcDbCircle
 10
7.208673595114036
 20
0.5125327978464221
 30
0.0
 40
0.15625
  0
CIRCLE
  5
32F
330
70
100
AcDbEntity
  8
0
100
AcDbCircle
 10
6.749851702844833
 20
0.6067709231712151
 30
0.0
 40
0.15625
  0
CIRCLE
  5
330
330
70
100
AcDbEntity
  8
0
100
AcDbCircle
 10
6.282555095193981
 20
0.6388993151046023
 30
0.0
 40
0.15625
  0
CIRCLE
  5
331
330
70
100
AcDbEntity
  8
0
100
AcDbCircle
 10
5.815153086947045
 20
0.6083425519096402
 30
0.0
 40
0.15625
  0
CIRCLE
  5
332
330
70
100
AcDbEntity
  8
0
100
AcDbCircle
 10
5.356016880621612
 20
0.5156479073431229
 30
0.0
 40
0.15625
  0
CIRCLE
  5
333
330
70
100
AcDbEntity
  8
0
100
AcDbCircle
 10
4.913369637647228
 20
0.362475548944488
 30
0.0
 40
0.15625
  0
CIRCLE
  5
334
330
70
100
AcDbEntity
  8
0
100
AcDbCircle
 10
4.495139200971523
 20
0.1515688043195844
 30
0.0
 40
0.15625
  0
CIRCLE
  5
335
330
70
100
AcDbEntity
  8
0
100
AcDbCircle
 10
4.10881610684094
 20
-0.113294972047802
 30
0.0
 40
0.15625
  0
CIRCLE
  5
336
330
70
100
AcDbEntity
  8
0
100
AcDbCircle
 10
3.761319428774898
 20
-0.4273720514778168
 30
0.0
 40
0.15625
  0
CIRCLE
  5
337
330
70
100
AcDbEntity
  8
0
100
AcDbCircle
 10
3.458872856477237
 20
-0.7850372916055371
 30
0.0
 40
0.15625
  0
CIRCLE
  5
338
330
70
100
AcDbEntity
  8
0
100
AcDbCircle
 10
3.206893229120195
 20
-1.179884883072458
 30
0.0
 40
0.15625
  0
CIRCLE
  5
339
330
70
100
AcDbEntity
  8
0
100
AcDbCircle
 10
3.009893519377601
 20
-1.604843078018214
 30
0.0
 40
0.15625
  0
CIRCLE
  5
33A
330
70
100
AcDbEntity
  8
0
100
AcDbCircle
 10
2.871402005770007
 20
-2.052300845577232
 30
0.0
 40
0.15625
  0
CIRCLE
  5
33B
330
70
100
AcDbEntity
  8
0
100
AcDbCircle
 10
2.793899080950678
 20
-2.514244185971565
 30
0.0
 40
0.15625
  0
LWPOLYLINE
  5
33C
330
70
100
AcDbEntity
  8
0
100
AcDbPolyline
 90
        4
 70
     1
 43
0.0
 10
6.574839730373149
 20
-2.522757063556133
 10
6.887339730373149
 20
-2.522757063556133
 10
6.887339730373149
 20
-0.2727570635561332
 10
6.574839730373149
 20
-0.2727570635561332
  0
LWPOLYLINE
  5
33D
330
70
100
AcDbEntity
  8
0
100
AcDbPolyline
 90
        4
 70
     1
 43
0.0
 10
7.114152151227422
 20
-2.522757075811298
 10
7.426652151227422
 20
-2.522757075811298
 10
7.416356661589098
 20
-0.5295474322322314
 10
7.103856661589098
 20
-0.5295474322322314
  0
CIRCLE
  5
33E
330
70
100
AcDbEntity
  8
0
100
AcDbCircle
 10
8.141370104336875
 20
-1.70701079538289
 30
0.0
 40
0.1563
  0
LWPOLYLINE
  5
33F
330
70
100
AcDbEntity
  8
0
100
AcDbPolyline
 90
        3
 70
     1
 43
0.0
 10
6.276670104336876
 20
-2.486095737303705
 10
6.276670104336876
 20
-0.2327364903039264
 42
0.3728772225407042
 10
3.675199879389211
 20
-2.486095737303706
  0
LWPOLYLINE
  5
340
330
70
100
AcDbEntity
  8
0
100
AcDbPolyline
 90
        2
 70
     1
 43
0.0
 10
-0.7233298956631238
 20
-2.861095737303705
 10
13.27667010433687
 20
-2.861095737303706
 42
0.9999999999999998
  0
CIRCLE
  5
3E8
330
70
100
AcDbEntity
  8
0
100
AcDbCircle
 10
9.791334893744895
 20
-9.996062861219041
 30
0.0
 40
0.15625
  0
CIRCLE
  5
3E9
330
70
100
AcDbEntity
  8
0
100
AcDbCircle
 10
9.715385852009527
 20
-9.533861502339927
 30
0.0
 40
0.15625
  0
CIRCLE
  5
3EA
330
70
100
AcDbEntity
  8
0
100
AcDbCircle
 10
9.578399853571404
 20
-9.085940539086212
 30
0.0
 40
0.15625
  0
CIRCLE
  5
3EB
330
70
100
AcDbEntity
  8
0
100
AcDbCircle
 10
9.382830327202272
 20
-8.660322267103001
 30
0.0
 40
0.15625
  0
CIRCLE
  5
3EC
330
70
100
AcDbEntity
  8
0
100
AcDbCircle
 10
9.132179936738859
 20
-8.264629539281575
 30
0.0
 40
0.15625
  0
CIRCLE
  5
3ED
330
70
100
AcDbEntity
  8
0
100
AcDbCircle
 10
8.830937848129664
 20
-7.905949239933267
 30
0.0
 40
0.15625
  0
CIRCLE
  5
3EE
330
70
100
AcDbEntity
  8
0
100
AcDbCircle
 10
8.484499328160193
 20
-7.590705358197898
 30
0.0
 40
0.15625
  0
CIRCLE
  5
3EF
330
70
100
AcDbEntity
  8
0
100
AcDbCircle
 10
8.099069114849068
 20
-7.324543933950952
 30
0.0
 40
0.15625
  0
CIRCLE
  5
3F0
330
70
100
AcDbEntity
  8
0
100
AcDbCircle
 10
7.681550290158067
 20
-7.112231936836167
 30
0.0
 40
0.15625
  0
CIRCLE
  5
3F1
330
70
100
AcDbEntity
  8
0
100
AcDbCircle
 10
7.239420645313423
 20
-6.957571889507285
 30
0.0
 40
0.15625
  0
CIRCLE
  5
3F2
330
70
100
AcDbEntity
  8
0
100
AcDbCircle
 10
6.780598753044221
 20
-6.863333764182492
 30
0.0
 40
0.15625
  0
CIRCLE
  5
3F3
330
70
100
AcDbEntity
  8
0
100
AcDbCircle
 10
6.313302145393369
 20
-6.831205372249105
 30
0.0
 40
0.15625
  0
CIRCLE
  5
3F4
330
70
100
AcDbEntity
  8
0
100
AcDbCircle
 10
5.845900137146433
 20
-6.861762135444067
 30
0.0
 40
0.15625
  0
CIRCLE
  5
3F5
330
70
100
AcDbEntity
  8
0
100
AcDbCircle
 10
5.386763930821
 20
-6.954456780010584
 30
0.0
 40
0.15625
  0
CIRCLE
  5
3F6
330
70
100
AcDbEntity
  8
0
100
AcDbCircle
 10
4.944116687846616
 20
-7.107629138409219
 30
0.0
 40
0.15625
  0
CIRCLE
  5
3F7
330
70
100
AcDbEntity
  8
0
100
AcDbCircle
 10
4.525886251170911
 20
-7.318535883034122
 30
0.0
 40
0.15625
  0
CIRCLE
  5
3F8
330
70
100
AcDbEntity
  8
0
100
AcDbCircle
 10
4.139563157040328
 20
-7.583399659401509
 30
0.0
 40
0.15625
  0
CIRCLE
  5
3F9
330
70
100
AcDbEntity
  8
0
100
AcDbCircle
 10
3.792066478974286
 20
-7.897476738831524
 30
0.0
 40
0.15625
  0
CIRCLE
  5
3FA
330
70
100
AcDbEntity
  8
0
100
AcDbCircle
 10
3.489619906676625
 20
-8.255141978959244
 30
0.0
 40
0.15625
  0
CIRCLE
  5
3FB
330
70
100
AcDbEntity
  8
0
100
AcDbCircle
 10
3.237640279319583
 20
-8.649989570426164
 30
0.0
 40
0.15625
  0
CIRCLE
  5
3FC
330
70
100
AcDbEntity
  8
0
100
AcDbCircle
 10
3.040640569576989
 20
-9.074947765371922
 30
0.0
 40
0.15625
  0
CIRCLE
  5
3FD
330
70
100
AcDbEntity
  8
0
100
AcDbCircle
 10
2.902149055969395
 20
-9.522405532930939
 30
0.0
 40
0.15625
  0
CIRCLE
  5
3FE
330
70
100
AcDbEntity
  8
0
100
AcDbCircle
 10
2.824646131150066
 20
-9.984348873325274
 30
0.0
 40
0.15625
  0
CIRCLE
  5
3FF
330
70
100
AcDbEntity
  8
0
100
AcDbCircle
 10
10.79179215453626
 20
-9.956526086898607
 30
0.0
 40
0.1563
  0
CIRCLE
  5
400
330
70
100
AcDbEntity
  8
0
100
AcDbCircle
 10
10.72849884823376
 20
-9.492131501592801
 30
0.0
 40
0.1563
  0
CIRCLE
  5
401
330
70
100
AcDbEntity
  8
0
100
AcDbCircle
 10
10.61724643947721
 20
-9.036838985697889
 30
0.0
 40
0.1563
  0
CIRCLE
  5
402
330
70
100
AcDbEntity
  8
0
100
AcDbCircle
 10
10.45924177447291
 20
-8.595587470889235
 30
0.0
 40
0.1563
  0
CIRCLE
  5
403
330
70
100
AcDbEntity
  8
0
100
AcDbCircle
 10
10.25619885953021
 20
-8.17316357457698
 30
0.0
 40
0.1563
  0
CIRCLE
  5
404
330
70
100
AcDbEntity
  8
0
100
AcDbCircle
 10
2.34737361296177
 20
-8.193899521921844
 30
0.0
 40
0.1563
  0
CIRCLE
  5
405
330
70
100
AcDbEntity
  8
0
100
AcDbCircle
 10
2.14654855919393
 20
-8.617382309368036
 30
0.0
 40
0.1563
  0
CIRCLE
  5
406
330
70
100
AcDbEntity
  8
0
100
AcDbCircle
 10
1.990859862790025
 20
-9.059456288805989
 30
0.0
 40
0.1563
  0
CIRCLE
  5
407
330
70
100
AcDbEntity
  8
0
100
AcDbCircle
 10
1.881996406846789
 20
-9.515325920876552
 30
0.0
 40
0.1563
  0
CIRCLE
  5
408
330
70
100
AcDbEntity
  8
0
100
AcDbCircle
 10
1.821139122638249
 20
-9.980046013451445
 30
0.0
 40
0.1563
  0
CIRCLE
  5
409
330
70
100
AcDbEntity
  8
0
100
AcDbCircle
 10
9.937646149438871
 20
-7.671982974998883
 30
0.0
 40
0.28125
  0
CIRCLE
  5
40A
330
70
100
AcDbEntity
  8
0
100
AcDbCircle
 10
9.37833334112172
 20
-7.041903573510124
 30
0.0
 40
0.28125
  0
CIRCLE
  5
40B
330
70
100
AcDbEntity
  8
0
100
AcDbCircle
 10
8.711374552183041
 20
-6.527125132250676
 30
0.0
 40
0.28125
  0
CIRCLE
  5
40C
330
70
100
AcDbEntity
  8
0
100
AcDbCircle
 10
7.960148940016669
 20
-6.145692373624317
 30
0.0
 40
0.28125
  0
CIRCLE
  5
40D
330
70
100
AcDbEntity
  8
0
100
AcDbCircle
 10
7.150989498679197
 20
-5.910975803645792
 30
0.0
 40
0.28125
  0
CIRCLE
  5
40E
330
70
100
AcDbEntity
  8
0
100
AcDbCircle
 10
6.312259998540661
 20
-5.831203030562381
 30
0.0
 40
0.28125
  0
CIRCLE
  5
40F
330
70
100
AcDbEntity
  8
0
100
AcDbCircle
 10
5.473360740368957
 20
-5.909170359406102
 30
0.0
 40
0.28125
  0
CIRCLE
  5
410
330
70
100
AcDbEntity
  8
0
100
AcDbCircle
 10
4.6636979755242
 20
-6.142144772061229
 30
0.0
 40
0.28125
  0
CIRCLE
  5
411
330
70
100
AcDbEntity
  8
0
100
AcDbCircle
 10
3.911653117564718
 20
-6.521959728776678
 30
0.0
 40
0.28125
  0
CIRCLE
  5
412
330
70
100
AcDbEntity
  8
0
100
AcDbCircle
 10
3.243587877878159
 20
-7.035301432956845
 30
0.0
 40
0.28125
  0
CIRCLE
  5
413
330
70
100
AcDbEntity
  8
0
100
AcDbCircle
 10
2.682920198692761
 20
-7.664175524683413
 30
0.0
 40
0.28125
  0
LWPOLYLINE
  5
414
330
70
100
AcDbEntity
  8
0
100
AcDbPolyline
 90
        4
 70
     1
 43
0.0
 10
9.307417154536263
 20
-10.33120042465741
 10
13.30741715453626
 20
-10.33120042465741
 42
0.9999999999999998
 10
-0.6925828454637362
 20
-10.33120042465741
 10
3.307417154536263
 20
-10.33120042465741
 42
-0.9999999999999998
  0
CIRCLE
  5
41F
330
70
100
AcDbEntity
  8
0
100
AcDbCircle
 10
6.042821825423318
 20
-4.337037505354347
 30
0.0
 40
0.1875
  0
CIRCLE
  5
420
330
70
100
AcDbEntity
  8
0
100
AcDbCircle
 10
5.482853752997716
 20
-4.388129252128242
 30
0.0
 40
0.1875
  0
CIRCLE
  5
421
330
70
100
AcDbEntity
  8
0
100
AcDbCircle
 10
4.930127514427173
 20
-4.491416782450718
 30
0.0
 40
0.1875
  0
ARC
  5
44D
330
70
100
AcDbEntity
  8
0
100
AcDbCircle
 10
21.12841971393086
 20
-2.99111647134752
 30
0.0
 40
4.0
100
AcDbArc
 50
0.0
 51
180.0
  0
CIRCLE
  5
44E
330
70
100
AcDbEntity
  8
0
100
AcDbCircle
 10
25.61279471393086
 20
-2.616442133588714
 30
0.0
 40
0.1563
  0
CIRCLE
  5
44F
330
70
100
AcDbEntity
  8
0
100
AcDbCircle
 10
25.54950140762836
 20
-2.152047548282907
 30
0.0
 40
0.1563
  0
CIRCLE
  5
450
330
70
100
AcDbEntity
  8
0
100
AcDbCircle
 10
25.43824899887181
 20
-1.696755032387995
 30
0.0
 40
0.1563
  0
CIRCLE
  5
451
330
70
100
AcDbEntity
  8
0
100
AcDbCircle
 10
25.28024433386751
 20
-1.255503517579342
 30
0.0
 40
0.1563
  0
CIRCLE
  5
452
330
70
100
AcDbEntity
  8
0
100
AcDbCircle
 10
25.07720141892481
 20
-0.8330796212670872
 30
0.0
 40
0.1563
  0
CIRCLE
  5
453
330
70
100
AcDbEntity
  8
0
100
AcDbCircle
 10
17.16837617235636
 20
-0.8538155686119512
 30
0.0
 40
0.1563
  0
CIRCLE
  5
454
330
70
100
AcDbEntity
  8
0
100
AcDbCircle
 10
16.96755111858852
 20
-1.277298356058143
 30
0.0
 40
0.1563
  0
CIRCLE
  5
455
330
70
100
AcDbEntity
  8
0
100
AcDbCircle
 10
16.81186242218462
 20
-1.719372335496097
 30
0.0
 40
0.1563
  0
CIRCLE
  5
456
330
70
100
AcDbEntity
  8
0
100
AcDbCircle
 10
16.70299896624138
 20
-2.175241967566658
 30
0.0
 40
0.1563
  0
CIRCLE
  5
457
330
70
100
AcDbEntity
  8
0
100
AcDbCircle
 10
16.64214168203284
 20
-2.639962060141551
 30
0.0
 40
0.1563
  0
CIRCLE
  5
458
330
70
100
AcDbEntity
  8
0
100
AcDbCircle
 10
24.75864870883346
 20
-0.3318990216889901
 30
0.0
 40
0.28125
  0
CIRCLE
  5
459
330
70
100
AcDbEntity
  8
0
100
AcDbCircle
 10
24.19933590051631
 20
0.2981803797997688
 30
0.0
 40
0.28125
  0
CIRCLE
  5
45A
330
70
100
AcDbEntity
  8
0
100
AcDbCircle
 10
23.53237711157763
 20
0.8129588210592171
 30
0.0
 40
0.28125
  0
CIRCLE
  5
45B
330
70
100
AcDbEntity
  8
0
100
AcDbCircle
 10
22.78115149941126
 20
1.194391579685575
 30
0.0
 40
0.28125
  0
CIRCLE
  5
45C
330
70
100
AcDbEntity
  8
0
100
AcDbCircle
 10
21.97199205807379
 20
1.4291081496641
 30
0.0
 40
0.28125
  0
CIRCLE
  5
45D
330
70
100
AcDbEntity
  8
0
100
AcDbCircle
 10
21.13326255793525
 20
1.508880922747511
 30
0.0
 40
0.28125
  0
CIRCLE
  5
45E
330
70
100
AcDbEntity
  8
0
100
AcDbCircle
 10
20.29436329976355
 20
1.43091359390379
 30
0.0
 40
0.28125
  0
CIRCLE
  5
45F
330
70
100
AcDbEntity
  8
0
100
AcDbCircle
 10
19.48470053491879
 20
1.197939181248663
 30
0.0
 40
0.28125
  0
CIRCLE
  5
460
330
70
100
AcDbEntity
  8
0
100
AcDbCircle
 10
18.73265567695931
 20
0.8181242245332143
 30
0.0
 40
0.28125
  0
CIRCLE
  5
461
330
70
100
AcDbEntity
  8
0
100
AcDbCircle
 10
18.06459043727275
 20
0.3047825203530472
 30
0.0
 40
0.28125
  0
CIRCLE
  5
462
330
70
100
AcDbEntity
  8
0
100
AcDbCircle
 10
17.50392275808735
 20
-0.3240915713735202
 30
0.0
 40
0.28125
  0
CIRCLE
  5
463
330
70
100
AcDbEntity
  8
0
100
AcDbCircle
 10
27.10777760643086
 20
-2.49384472129735
 30
0.0
 40
0.28125
  0
CIRCLE
  5
464
330
70
100
AcDbEntity
  8
0
100
AcDbCircle
 10
26.97905430745983
 20
-1.660674870599058
 30
0.0
 40
0.28125
  0
CIRCLE
  5
465
330
70
100
AcDbEntity
  8
0
100
AcDbCircle
 10
26.7348229555508
 20
-0.8537716951465812
 30
0.0
 40
0.28125
  0
CIRCLE
  5
466
330
70
100
AcDbEntity
  8
0
100
AcDbCircle
 10
26.37990536746134
 20
-0.0890657428516111
 30
0.0
 40
0.28125
  0
CIRCLE
  5
467
330
70
100
AcDbEntity
  8
0
100
AcDbCircle
 10
25.92130861890233
 20
0.6183455307521602
 30
0.0
 40
0.28125
  0
CIRCLE
  5
468
330
70
100
AcDbEntity
  8
0
100
AcDbCircle
 10
16.33662204653591
 20
0.6197940945275917
 30
0.0
 40
0.28125
  0
CIRCLE
  5
469
330
70
100
AcDbEntity
  8
0
100
AcDbCircle
 10
15.87781149235782
 20
-0.0874785284300694
 30
0.0
 40
0.28125
  0
CIRCLE
  5
46A
330
70
100
AcDbEntity
  8
0
100
AcDbCircle
 10
15.52266277566399
 20
-0.8520771661749506
 30
0.0
 40
0.2812499999999999
  0
CIRCLE
  5
46B
330
70
100
AcDbEntity
  8
0
100
AcDbCircle
 10
15.27818753529682
 20
-1.658906481865709
 30
0.0
 40
0.28125
  0
CIRCLE
  5
46C
330
70
100
AcDbEntity
  8
0
100
AcDbCircle
 10
15.14921240306094
 20
-2.492037385790982
 30
0.0
 40
0.28125
  0
CIRCLE
  5
46D
330
70
100
AcDbEntity
  8
0
100
AcDbCircle
 10
20.8638243597293
 20
3.003046464253696
 30
0.0
 40
0.1875
  0
CIRCLE
  5
46E
330
70
100
AcDbEntity
  8
0
100
AcDbCircle
 10
20.30385628730369
 20
2.9519547174798
 30
0.0
 40
0.1875
  0
CIRCLE
  5
46F
330
70
100
AcDbEntity
  8
0
100
AcDbCircle
 10
19.75113004873315
 20
2.848667187157325
 30
0.0
 40
0.1875
  0
LWPOLYLINE
  5
470
330
70
100
AcDbEntity
  8
0
100
AcDbPolyline
 90
        4
 70
     0
 43
0.0
 10
25.12841971393086
 20
-2.99111647134752
 10
28.12841971393086
 20
-2.99111647134752
 42
0.9999999999999998
 10
14.12841971393086
 20
-2.99111647134752
 10
17.12841971393086
 20
-2.99111647134752
  0
ARC
  5
4B6
330
70
100
AcDbEntity
  8
0
100
AcDbCircle
 10
21.55113432387071
 20
-10.03947790506249
 30
0.0
 40
5.0
100
AcDbArc
 50
0.0
 51
180.0
  0
CIRCLE
  5
4B7
330
70
100
AcDbEntity
  8
0
100
AcDbCircle
 10
27.53049221637072
 20
-9.542206155012323
 30
0.0
 40
0.28125
  0
CIRCLE
  5
4B8
330
70
100
AcDbEntity
  8
0
100
AcDbCircle
 10
27.40176891739969
 20
-8.709036304314032
 30
0.0
 40
0.28125
  0
CIRCLE
  5
4B9
330
70
100
AcDbEntity
  8
0
100
AcDbCircle
 10
27.15753756549066
 20
-7.902133128861554
 30
0.0
 40
0.28125
  0
CIRCLE
  5
4BA
330
70
100
AcDbEntity
  8
0
100
AcDbCircle
 10
26.8026199774012
 20
-7.137427176566584
 30
0.0
 40
0.28125
  0
CIRCLE
  5
4BB
330
70
100
AcDbEntity
  8
0
100
AcDbCircle
 10
26.34402322884219
 20
-6.430015902962813
 30
0.0
 40
0.28125
  0
CIRCLE
  5
4BC
330
70
100
AcDbEntity
  8
0
100
AcDbCircle
 10
16.75933665647576
 20
-6.428567339187381
 30
0.0
 40
0.28125
  0
CIRCLE
  5
4BD
330
70
100
AcDbEntity
  8
0
100
AcDbCircle
 10
16.30052610229768
 20
-7.135839962145042
 30
0.0
 40
0.28125
  0
CIRCLE
  5
4BE
330
70
100
AcDbEntity
  8
0
100
AcDbCircle
 10
15.94537738560385
 20
-7.900438599889923
 30
0.0
 40
0.2812499999999999
  0
CIRCLE
  5
4BF
330
70
100
AcDbEntity
  8
0
100
AcDbCircle
 10
15.70090214523668
 20
-8.707267915580683
 30
0.0
 40
0.28125
  0
CIRCLE
  5
4C0
330
70
100
AcDbEntity
  8
0
100
AcDbCircle
 10
15.5719270130008
 20
-9.540398819505956
 30
0.0
 40
0.28125
  0
CIRCLE
  5
4C1
330
70
100
AcDbEntity
  8
0
100
AcDbCircle
 10
24.18735007193447
 20
-4.649638711759894
 30
0.0
 40
0.59375
  0
CIRCLE
  5
4C2
330
70
100
AcDbEntity
  8
0
100
AcDbCircle
 10
19.01870827310553
 20
-4.600101259029781
 30
0.0
 40
0.59375
  0
CIRCLE
  5
4C3
330
70
100
AcDbEntity
  8
0
100
AcDbCircle
 10
17.53828938025644
 20
-5.578864106658786
 30
0.0
 40
0.59375
  0
CIRCLE
  5
4C4
330
70
100
AcDbEntity
  8
0
100
AcDbCircle
 10
25.565342159034
 20
-5.580090564169825
 30
0.0
 40
0.59375
  0
CIRCLE
  5
4C5
330
70
100
AcDbEntity
  8
0
100
AcDbCircle
 10
22.96065560215594
 20
-4.207389962819053
 30
0.0
 40
0.1875
  0
CIRCLE
  5
4C6
330
70
100
AcDbEntity
  8
0
100
AcDbCircle
 10
22.40850824150763
 20
-4.101051348696231
 30
0.0
 40
0.1875
  0
CIRCLE
  5
4C7
330
70
100
AcDbEntity
  8
0
100
AcDbCircle
 10
21.84883088466657
 20
-4.046867726042787
 30
0.0
 40
0.1875
  0
CIRCLE
  5
4C8
330
70
100
AcDbEntity
  8
0
100
AcDbCircle
 10
21.28653896966916
 20
-4.045314969461276
 30
0.0
 40
0.1875
  0
CIRCLE
  5
4C9
330
70
100
AcDbEntity
  8
0
100
AcDbCircle
 10
20.72657089724355
 20
-4.096406716235172
 30
0.0
 40
0.1875
  0
CIRCLE
  5
4CA
330
70
100
AcDbEntity
  8
0
100
AcDbCircle
 10
20.17384465867301
 20
-4.199694246557648
 30
0.0
 40
0.1875
  0
LWPOLYLINE
  5
4CB
330
70
100
AcDbEntity
  8
0
100
AcDbPolyline
 90
        4
 70
     0
 43
0.0
 10
26.55113432387072
 20
-10.03947790506249
 10
28.55113432387072
 20
-10.03947790506249
 42
0.9999999999999998
 10
14.55113432387071
 20
-10.03947790506249
 10
16.55113432387071
 20
-10.03947790506249
  0
CIRCLE
  5
4D4
330
70
100
AcDbEntity
  8
0
100
AcDbCircle
 10
21.42611629981532
 20
3.001493691374038
 30
0.0
 40
0.1875
  0
LWPOLYLINE
  5
4D6
330
70
100
AcDbEntity
  8
0
100
AcDbPolyline
 90
        4
 70
     1
 43
0.0
 10
96.0
 20
48.0
 10
-3.197692110458376
 20
48.0
 10
-3.197692110458376
 20
-12.12933097721949
 10
96.0
 20
-12.12933097721949
  0
TEXT
  5
4DB
330
70
100
AcDbEntity
  8
0
100
AcDbText
 10
-1.777652391105533
 20
-2.793748240003566
 30
0.0
 40
1.979187114039831
  1
1
100
AcDbText
  0
TEXT
  5
4DC
330
70
100
AcDbEntity
  8
0
100
AcDbText
 10
-2.46044819143978
 20
-10.23255819880309
 30
0.0
 40
1.979187114039831
  1
2
100
AcDbText
  0
TEXT
  5
4DD
330
70
100
AcDbEntity
  8
0
100
AcDbText
 10
28.63801083137681
 20
-3.002519582959671
 30
0.0
 40
1.979187114039831
  1
3
100
AcDbText
  0
TEXT
  5
4DE
330
70
100
AcDbEntity
  8
0
100
AcDbText
 10
29.00973684301934
 20
-10.04349078179717
 30
0.0
 40
1.979187114039831
  1
4
100
AcDbText
  0
ENDSEC
  0
SECTION
  2
OBJECTS
  0
DICTIONARY
  5
C
330
0
100
AcDbDictionary
281
     1
  3
ACAD_CIP_PREVIOUS_PRODUCT_INFO
350
7B
  3
ACAD_COLOR
350
63
  3
ACAD_DETAILVIEWSTYLE
350
6A
  3
ACAD_GROUP
350
D
  3
ACAD_LAYOUT
350
62
  3
ACAD_MATERIAL
350
10
  3
ACAD_MLEADERSTYLE
350
66
  3
ACAD_MLINESTYLE
350
5F
  3
ACAD_PLOTSETTINGS
350
61
  3
ACAD_PLOTSTYLENAME
350
E
  3
ACAD_SCALELIST
350
42
  3
ACAD_SECTIONVIEWSTYLE
350
68
  3
ACAD_TABLESTYLE
350
64
  3
ACAD_VISUALSTYLE
350
29
  3
ACDB_RECOMPOSE_DATA
350
4F2
  3
AcDbVariableDictionary
350
D0
  0
DICTIONARY
  5
12E
330
2
100
AcDbDictionary
280
     1
281
     1
  3
ACAD_LAYERSTATES
360
12F
  0
DICTIONARY
  5
E7
330
70
100
AcDbDictionary
280
     1
281
     1
  3
ACAD_SORTENTS
360
2FD
  0
DICTIONARY
  5
496
330
471
100
AcDbDictionary
280
     1
281
     1
  3
ACAD_SORTENTS
360
497
  0
XRECORD
  5
7B
102
{ACAD_REACTORS
330
C
102
}
330
C
100
AcDbXrecord
280
     1
300
AMECH_PP
300
2014
300
PDSU_F_S
  0
DICTIONARY
  5
63
102
{ACAD_REACTORS
330
C
102
}
330
C
100
AcDbDictionary
281
     1
  0
DICTIONARY
  5
6A
102
{ACAD_REACTORS
330
C
102
}
330
C
100
AcDbDictionary
281
     1
  3
Imperial24
350
6B
  0
DICTIONARY
  5
D
102
{ACAD_REACTORS
330
C
102
}
330
C
100
AcDbDictionary
281
     1
  0
DICTIONARY
  5
62
102
{ACAD_REACTORS
330
C
102
}
330
C
100
AcDbDictionary
281
     1
  3
Layout1
350
6F
  3
Layout2
350
77
  3
Model
350
73
  0
DICTIONARY
  5
10
102
{ACAD_REACTORS
330
C
102
}
330
C
100
AcDbDictionary
281
     1
  3
ByBlock
350
19
  3
ByLayer
350
11
  3
Global
350
21
  0
DICTIONARY
  5
66
102
{ACAD_REACTORS
330
C
102
}
330
C
100
AcDbDictionary
281
     1
  3
Standard
350
67
  0
DICTIONARY
  5
5F
102
{ACAD_REACTORS
330
C
102
}
330
C
100
AcDbDictionary
281
     1
  3
Standard
350
60
  0
DICTIONARY
  5
61
102
{ACAD_REACTORS
330
C
102
}
330
C
100
AcDbDictionary
281
     1
  0
ACDBDICTIONARYWDFLT
  5
E
102
{ACAD_REACTORS
330
C
102
}
330
C
100
AcDbDictionary
281
     1
  3
Normal
350
F
100
AcDbDictionaryWithDefault
340
F
  0
DICTIONARY
  5
42
102
{ACAD_REACTORS
330
C
102
}
330
C
100
AcDbDictionary
281
     1
  3
A0
350
43
  3
A1
350
44
  3
A2
350
45
  3
A3
350
46
  3
A4
350
47
  3
A5
350
48
  3
A6
350
49
  3
A7
350
4A
  3
A8
350
4B
  3
A9
350
4C
  3
B0
350
4D
  3
B1
350
4E
  3
B2
350
4F
  3
B3
350
50
  3
B4
350
51
  3
B5
350
52
  3
B6
350
53
  0
DICTIONARY
  5
68
102
{ACAD_REACTORS
330
C
102
}
330
C
100
AcDbDictionary
281
     1
  3
Imperial24
350
69
  0
DICTIONARY
  5
64
102
{ACAD_REACTORS
330
C
102
}
330
C
100
AcDbDictionary
281
     1
  3
Standard
350
65
  0
DICTIONARY
  5
29
102
{ACAD_REACTORS
330
C
102
}
330
C
100
AcDbDictionary
281
     1
  3
2dWireframe
350
2F
  3
Basic
350
2E
  3
Brighten
350
35
  3
ColorChange
350
39
  3
Conceptual
350
32
  3
Dim
350
34
  3
EdgeColorOff
350
41
  3
Facepattern
350
38
  3
Flat
350
2A
  3
FlatWithEdges
350
2B
  3
Gouraud
350
2C
  3
GouraudWithEdges
350
2D
  3
Hidden
350
31
  3
JitterOff
350
3F
  3
Linepattern
350
37
  3
OverhangOff
350
40
  3
Realistic
350
33
  3
Shaded
350
3E
  3
Shaded with edges
350
3D
  3
Shades of Gray
350
3A
  3
Sketchy
350
3B
  3
Thicken
350
36
  3
Wireframe
350
30
  3
X-Ray
350
3C
  0
XRECORD
  5
4F2
102
{ACAD_REACTORS
330
C
102
}
330
C
100
AcDbXrecord
280
     1
 90
        1
330
65
330
69
330
6B
  0
DICTIONARY
  5
D0
102
{ACAD_REACTORS
330
C
102
}
330
C
100
AcDbDictionary
281
     1
  3
CANNOSCALE
350
D5
  3
CMLEADERSTYLE
350
D2
  3
CTABLESTYLE
350
D1
  3
CVIEWDETAILSTYLE
350
D3
  3
CVIEWSECTIONSTYLE
350
D4
  0
DICTIONARY
  5
12F
102
{ACAD_REACTORS
330
12E
102
}
330
12E
100
AcDbDictionary
281
     1
  0
SORTENTSTABLE
  5
2FD
102
{ACAD_REACTORS
330
E7
102
}
330
E7
100
AcDbSortentsTable
330
70
331
295
  5
295
331
15E
  5
15E
331
109
  5
109
331
FF
  5
FF
331
178
  5
178
331
2E4
  5
2F8
331
296
  5
296
331
15F
  5
15F
331
10A
  5
10A
331
9B
  5
9B
331
179
  5
179
331
160
  5
160
331
297
  5
297
331
10B
  5
10B
331
9C
  5
9C
331
8B
  5
8B
331
298
  5
298
331
10C
  5
10C
331
BE
  5
BE
331
9D
  5
9D
331
8C
  5
8C
331
2F8
  5
2FB
331
8D
  5
8D
331
1C0
  5
1C0
331
8E
  5
8E
331
175
  5
175
331
1C1
  5
1C1
331
8F
  5
8F
331
27A
  5
27A
331
176
  5
176
331
143
  5
143
331
2FB
  5
2FC
331
1C2
  5
1C2
331
211
  5
211
331
177
  5
177
331
100
  5
100
331
1C3
  5
1C3
331
91
  5
91
331
212
  5
212
331
201
  5
201
331
101
  5
101
331
1C4
  5
1C4
331
F7
  5
F7
331
92
  5
92
331
26C
  5
26C
331
257
  5
257
331
213
  5
213
331
202
  5
202
331
102
  5
102
331
F8
  5
F8
331
1E7
  5
1E7
331
1C5
  5
1C5
331
93
  5
93
331
214
  5
214
331
203
  5
203
331
103
  5
103
331
F9
  5
F9
331
1C6
  5
1C6
331
94
  5
94
331
215
  5
215
331
204
  5
204
331
104
  5
104
331
FA
  5
FA
331
1C7
  5
1C7
331
AE
  5
AE
331
95
  5
95
331
1C8
  5
1C8
331
25A
  5
25A
331
105
  5
105
331
FB
  5
FB
331
1A6
  5
1A6
331
1C9
  5
1C9
331
25B
  5
25B
331
106
  5
106
331
FC
  5
FC
331
107
  5
107
331
FD
  5
FD
331
87
  5
87
331
294
  5
294
331
15D
  5
15D
331
108
  5
108
331
FE
  5
FE
331
99
  5
99
331
88
  5
88
  0
SORTENTSTABLE
  5
497
102
{ACAD_REACTORS
330
496
102
}
330
496
100
AcDbSortentsTable
330
471
  0
ACDBDETAILVIEWSTYLE
  5
6B
102
{ACAD_XDICTIONARY
360
CD
102
}
102
{ACAD_REACTORS
330
6A
102
}
330
6A
100
AcDbModelDocViewStyle
 70
     0
  3
Imperial24
290
     0
100
AcDbDetailViewStyle
 70
     0
 71
     0
 90
        3
 71
     1
340
55
 62
   256
 40
0.24
340
0
 62
   256
 40
0.24
300

 40
0.36
280
     3
 71
     2
340
5D
 90
       25
 62
   256
 71
     3
340
55
 62
   256
 40
0.24
 90
        1
 40
0.75
 90
        1
300
%<\AcVar ViewType \f "%tc1">% %<\AcVar ViewDetailId>%\PSCALE %<\AcVar ViewScale \f "%sn">%
 71
     4
340
5D
 90
       25
 62
   256
340
5D
 90
       25
 62
   256
280
     0
  0
LAYOUT
  5
6F
102
{ACAD_REACTORS
330
62
102
}
330
62
100
AcDbPlotSettings
  1

  2
KONICA MINOLTA C200 PS(P)
  4

  6

 40
0.0
 41
0.0
 42
0.0
 43
0.0
 44
0.0
 45
0.0
 46
0.0
 47
0.0
 48
0.0
 49
0.0
140
0.0
141
0.0
142
1.0
143
1.0
 70
   688
 72
     0
 73
     0
 74
     5
  7

 75
    16
147
1.0
 76
     0
 77
     2
 78
   300
148
0.0
149
0.0
100
AcDbLayout
  1
Layout1
 70
     1
 71
     1
 10
0.0
 20
0.0
 11
12.0
 21
9.0
 12
0.0
 22
0.0
 32
0.0
 14
1.000000000000000E+20
 24
1.000000000000000E+20
 34
1.000000000000000E+20
 15
-1.000000000000000E+20
 25
-1.000000000000000E+20
 35
-1.000000000000000E+20
146
0.0
 13
0.0
 23
0.0
 33
0.0
 16
1.0
 26
0.0
 36
0.0
 17
0.0
 27
1.0
 37
0.0
 76
     0
330
6C
  0
LAYOUT
  5
77
102
{ACAD_REACTORS
330
62
102
}
330
62
100
AcDbPlotSettings
  1

  2
KONICA MINOLTA C200 PS(P)
  4

  6

 40
0.0
 41
0.0
 42
0.0
 43
0.0
 44
0.0
 45
0.0
 46
0.0
 47
0.0
 48
0.0
 49
0.0
140
0.0
141
0.0
142
1.0
143
1.0
 70
   688
 72
     0
 73
     0
 74
     5
  7

 75
    16
147
1.0
 76
     0
 77
     2
 78
   300
148
0.0
149
0.0
100
AcDbLayout
  1
Layout2
 70
     1
 71
     2
 10
0.0
 20
0.0
 11
12.0
 21
9.0
 12
0.0
 22
0.0
 32
0.0
 14
0.0
 24
0.0
 34
0.0
 15
0.0
 25
0.0
 35
0.0
146
0.0
 13
0.0
 23
0.0
 33
0.0
 16
1.0
 26
0.0
 36
0.0
 17
0.0
 27
1.0
 37
0.0
 76
     0
330
74
  0
LAYOUT
  5
73
102
{ACAD_REACTORS
330
62
102
}
330
62
100
AcDbPlotSettings
  1

  2
KONICA MINOLTA C200 PS(P)
  4

  6

 40
0.0
 41
0.0
 42
0.0
 43
0.0
 44
0.0
 45
0.0
 46
0.0
 47
0.0
 48
0.0
 49
0.0
140
0.0
141
0.0
142
1.0
143
1.0
 70
  1712
 72
     0
 73
     0
 74
     0
  7

 75
     0
147
1.0
 76
     0
 77
     2
 78
   300
148
0.0
149
0.0
100
AcDbLayout
  1
Model
 70
     1
 71
     0
 10
0.0
 20
0.0
 11
12.0
 21
9.0
 12
0.0
 22
0.0
 32
0.0
 14
0.0
 24
0.0
 34
0.0
 15
0.0
 25
0.0
 35
0.0
146
0.0
 13
0.0
 23
0.0
 33
0.0
 16
1.0
 26
0.0
 36
0.0
 17
0.0
 27
1.0
 37
0.0
 76
     0
330
70
331
57
  0
MATERIAL
  5
19
102
{ACAD_XDICTIONARY
360
1A
102
}
102
{ACAD_REACTORS
330
10
102
}
330
10
100
AcDbMaterial
  1
ByBlock
 72
     0
 43
0.0208333333333333
 43
0.0
 43
0.0
 43
0.0
 43
0.0
 43
0.0208333333333333
 43
0.0
 43
0.0
 43
0.0
 43
0.0
 43
1.0
 43
0.0
 43
0.0
 43
0.0
 43
0.0
 43
1.0
 77
     0
 47
0.0208333333333333
 47
0.0
 47
0.0
 47
0.0
 47
0.0
 47
0.0208333333333333
 47
0.0
 47
0.0
 47
0.0
 47
0.0
 47
1.0
 47
0.0
 47
0.0
 47
0.0
 47
0.0
 47
1.0
171
     0
 49
0.0208333333333333
 49
0.0
 49
0.0
 49
0.0
 49
0.0
 49
0.0208333333333333
 49
0.0
 49
0.0
 49
0.0
 49
0.0
 49
1.0
 49
0.0
 49
0.0
 49
0.0
 49
0.0
 49
1.0
175
     0
142
0.0208333333333333
142
0.0
142
0.0
142
0.0
142
0.0
142
0.0208333333333333
142
0.0
142
0.0
142
0.0
142
0.0
142
1.0
142
0.0
142
0.0
142
0.0
142
0.0
142
1.0
179
     0
144
0.0208333333333333
144
0.0
144
0.0
144
0.0
144
0.0
144
0.0208333333333333
144
0.0
144
0.0
144
0.0
144
0.0
144
1.0
144
0.0
144
0.0
144
0.0
144
0.0
144
1.0
147
0.0208333333333333
147
0.0
147
0.0
147
0.0
147
0.0
147
0.0208333333333333
147
0.0
147
0.0
147
0.0
147
0.0
147
1.0
147
0.0
147
0.0
147
0.0
147
0.0
147
1.0
  0
MATERIAL
  5
11
102
{ACAD_XDICTIONARY
360
12
102
}
102
{ACAD_REACTORS
330
10
102
}
330
10
100
AcDbMaterial
  1
ByLayer
 72
     0
 43
0.0208333333333333
 43
0.0
 43
0.0
 43
0.0
 43
0.0
 43
0.0208333333333333
 43
0.0
 43
0.0
 43
0.0
 43
0.0
 43
1.0
 43
0.0
 43
0.0
 43
0.0
 43
0.0
 43
1.0
 77
     0
 47
0.0208333333333333
 47
0.0
 47
0.0
 47
0.0
 47
0.0
 47
0.0208333333333333
 47
0.0
 47
0.0
 47
0.0
 47
0.0
 47
1.0
 47
0.0
 47
0.0
 47
0.0
 47
0.0
 47
1.0
171
     0
 49
0.0208333333333333
 49
0.0
 49
0.0
 49
0.0
 49
0.0
 49
0.0208333333333333
 49
0.0
 49
0.0
 49
0.0
 49
0.0
 49
1.0
 49
0.0
 49
0.0
 49
0.0
 49
0.0
 49
1.0
175
     0
142
0.0208333333333333
142
0.0
142
0.0
142
0.0
142
0.0
142
0.0208333333333333
142
0.0
142
0.0
142
0.0
142
0.0
142
1.0
142
0.0
142
0.0
142
0.0
142
0.0
142
1.0
179
     0
144
0.0208333333333333
144
0.0
144
0.0
144
0.0
144
0.0
144
0.0208333333333333
144
0.0
144
0.0
144
0.0
144
0.0
144
1.0
144
0.0
144
0.0
144
0.0
144
0.0
144
1.0
147
0.0208333333333333
147
0.0
147
0.0
147
0.0
147
0.0
147
0.0208333333333333
147
0.0
147
0.0
147
0.0
147
0.0
147
1.0
147
0.0
147
0.0
147
0.0
147
0.0
147
1.0
  0
MATERIAL
  5
21
102
{ACAD_XDICTIONARY
360
22
102
}
102
{ACAD_REACTORS
330
10
102
}
330
10
100
AcDbMaterial
  1
Global
 72
     0
 43
0.0208333333333333
 43
0.0
 43
0.0
 43
0.0
 43
0.0
 43
0.0208333333333333
 43
0.0
 43
0.0
 43
0.0
 43
0.0
 43
1.0
 43
0.0
 43
0.0
 43
0.0
 43
0.0
 43
1.0
 77
     0
 47
0.0208333333333333
 47
0.0
 47
0.0
 47
0.0
 47
0.0
 47
0.0208333333333333
 47
0.0
 47
0.0
 47
0.0
 47
0.0
 47
1.0
 47
0.0
 47
0.0
 47
0.0
 47
0.0
 47
1.0
171
     0
 49
0.0208333333333333
 49
0.0
 49
0.0
 49
0.0
 49
0.0
 49
0.0208333333333333
 49
0.0
 49
0.0
 49
0.0
 49
0.0
 49
1.0
 49
0.0
 49
0.0
 49
0.0
 49
0.0
 49
1.0
175
     0
142
0.0208333333333333
142
0.0
142
0.0
142
0.0
142
0.0
142
0.0208333333333333
142
0.0
142
0.0
142
0.0
142
0.0
142
1.0
142
0.0
142
0.0
142
0.0
142
0.0
142
1.0
179
     0
144
0.0208333333333333
144
0.0
144
0.0
144
0.0
144
0.0
144
0.0208333333333333
144
0.0
144
0.0
144
0.0
144
0.0
144
1.0
144
0.0
144
0.0
144
0.0
144
0.0
144
1.0
147
0.0208333333333333
147
0.0
147
0.0
147
0.0
147
0.0
147
0.0208333333333333
147
0.0
147
0.0
147
0.0
147
0.0
147
1.0
147
0.0
147
0.0
147
0.0
147
0.0
147
1.0
  0
MLEADERSTYLE
  5
67
102
{ACAD_REACTORS
330
66
102
}
330
66
100
AcDbMLeaderStyle
179
     2
170
     2
171
     1
172
     0
 90
        2
 40
0.0
 41
0.0
173
     1
 91
-1056964608
340
5B
 92
       -2
290
     1
 42
0.09
291
     1
 43
0.36
  3
Standard
 44
0.18
300

342
55
174
     1
178
     6
175
     1
176
     0
 93
-1056964608
 45
0.18
292
     0
297
     0
 46
0.18
 94
-1056964608
 47
1.0
 49
1.0
140
1.0
293
     1
141
0.0
294
     1
177
     0
142
1.0
295
     1
296
     0
143
0.125
271
     0
272
     9
273
     9
298
     1
  0
MLINESTYLE
  5
60
102
{ACAD_REACTORS
330
5F
102
}
330
5F
100
AcDbMlineStyle
  2
STANDARD
 70
     0
  3

 62
   256
 51
90.0
 52
90.0
 71
     2
 49
0.5
 62
   256
  6
BYLAYER
 49
-0.5
 62
   256
  6
BYLAYER
  0
ACDBPLACEHOLDER
  5
F
102
{ACAD_REACTORS
330
E
102
}
330
E
  0
SCALE
  5
43
102
{ACAD_REACTORS
330
42
102
}
330
42
100
AcDbScale
 70
     0
300
1:1
140
1.0
141
1.0
290
     1
  0
SCALE
  5
44
102
{ACAD_REACTORS
330
42
102
}
330
42
100
AcDbScale
 70
     0
300
1/128" = 1'-0"
140
0.0078125
141
12.0
290
     0
  0
SCALE
  5
45
102
{ACAD_REACTORS
330
42
102
}
330
42
100
AcDbScale
 70
     0
300
1/64" = 1'-0"
140
0.015625
141
12.0
290
     0
  0
SCALE
  5
46
102
{ACAD_REACTORS
330
42
102
}
330
42
100
AcDbScale
 70
     0
300
1/32" = 1'-0"
140
0.03125
141
12.0
290
     0
  0
SCALE
  5
47
102
{ACAD_REACTORS
330
42
102
}
330
42
100
AcDbScale
 70
     0
300
1/16" = 1'-0"
140
0.0625
141
12.0
290
     0
  0
SCALE
  5
48
102
{ACAD_REACTORS
330
42
102
}
330
42
100
AcDbScale
 70
     0
300
3/32" = 1'-0"
140
0.09375
141
12.0
290
     0
  0
SCALE
  5
49
102
{ACAD_REACTORS
330
42
102
}
330
42
100
AcDbScale
 70
     0
300
1/8" = 1'-0"
140
0.125
141
12.0
290
     0
  0
SCALE
  5
4A
102
{ACAD_REACTORS
330
42
102
}
330
42
100
AcDbScale
 70
     0
300
3/16" = 1'-0"
140
0.1875
141
12.0
290
     0
  0
SCALE
  5
4B
102
{ACAD_REACTORS
330
42
102
}
330
42
100
AcDbScale
 70
     0
300
1/4" = 1'-0"
140
0.25
141
12.0
290
     0
  0
SCALE
  5
4C
102
{ACAD_REACTORS
330
42
102
}
330
42
100
AcDbScale
 70
     0
300
3/8" = 1'-0"
140
0.375
141
12.0
290
     0
  0
SCALE
  5
4D
102
{ACAD_REACTORS
330
42
102
}
330
42
100
AcDbScale
 70
     0
300
1/2" = 1'-0"
140
0.5
141
12.0
290
     0
  0
SCALE
  5
4E
102
{ACAD_REACTORS
330
42
102
}
330
42
100
AcDbScale
 70
     0
300
3/4" = 1'-0"
140
0.75
141
12.0
290
     0
  0
SCALE
  5
4F
102
{ACAD_REACTORS
330
42
102
}
330
42
100
AcDbScale
 70
     0
300
1" = 1'-0"
140
1.0
141
12.0
290
     0
  0
SCALE
  5
50
102
{ACAD_REACTORS
330
42
102
}
330
42
100
AcDbScale
 70
     0
300
1-1/2" = 1'-0"
140
1.5
141
12.0
290
     0
  0
SCALE
  5
51
102
{ACAD_REACTORS
330
42
102
}
330
42
100
AcDbScale
 70
     0
300
3" = 1'-0"
140
3.0
141
12.0
290
     0
  0
SCALE
  5
52
102
{ACAD_REACTORS
330
42
102
}
330
42
100
AcDbScale
 70
     0
300
6" = 1'-0"
140
6.0
141
12.0
290
     0
  0
SCALE
  5
53
102
{ACAD_REACTORS
330
42
102
}
330
42
100
AcDbScale
 70
     0
300
1'-0" = 1'-0"
140
12.0
141
12.0
290
     0
  0
ACDBSECTIONVIEWSTYLE
  5
69
102
{ACAD_XDICTIONARY
360
CB
102
}
102
{ACAD_REACTORS
330
68
102
}
330
68
100
AcDbModelDocViewStyle
 70
     0
  3
Imperial24
290
     0
100
AcDbSectionViewStyle
 70
     0
 71
     0
 90
       78
 71
     1
340
55
 62
   256
 40
0.24
340
0
340
0
 62
   256
 40
0.24
300
I, O, Q, S, X, Z
 40
0.48
 90
        3
 40
0.18
 90
        1
 71
     2
340
5D
 90
       25
 62
   256
340
5D
 90
       50
 62
   256
 40
0.24
 40
0.0
 40
0.24
 71
     3
340
55
 62
   256
 40
0.24
 90
        1
 40
0.75
 90
        1
300
%<\AcVar ViewType \f "%tc1">% %<\AcVar ViewSectionStartId>%-%<\AcVar ViewSectionEndId>%\PSCALE %<\AcVar ViewScale \f "%sn">%
 71
     4
 62
   256
 62
   257
300
ANSI31
 40
1.0
 90
        0
290
     0
290
     0
 90
        6
 40
0.0
 40
1.570796326794896
 40
0.2617993877991494
 40
1.308996938995747
 40
-0.2617993877991494
 40
1.832595714594046
  0
TABLESTYLE
  5
65
102
{ACAD_XDICTIONARY
360
4EE
102
}
102
{ACAD_REACTORS
330
64
102
}
330
64
100
AcDbTableStyle
280
     0
  3
Standard
 70
     0
 71
     0
 40
0.06
 41
0.06
280
     0
281
     0
  7
Standard
140
0.18
170
     2
 62
     0
 63
     7
283
     0
 90
      512
 91
        0
  1

274
    -2
284
     1
 64
     0
275
    -2
285
     1
 65
     0
276
    -2
286
     1
 66
     0
277
    -2
287
     1
 67
     0
278
    -2
288
     1
 68
     0
279
    -2
289
     1
 69
     0
  7
Standard
140
0.25
170
     5
 62
     0
 63
     7
283
     0
 90
      512
 91
        0
  1

274
    -2
284
     1
 64
     0
275
    -2
285
     1
 65
     0
276
    -2
286
     1
 66
     0
277
    -2
287
     1
 67
     0
278
    -2
288
     1
 68
     0
279
    -2
289
     1
 69
     0
  7
Standard
140
0.18
170
     5
 62
     0
 63
     7
283
     0
 90
      512
 91
        0
  1

274
    -2
284
     1
 64
     0
275
    -2
285
     1
 65
     0
276
    -2
286
     1
 66
     0
277
    -2
287
     1
 67
     0
278
    -2
288
     1
 68
     0
279
    -2
289
     1
 69
     0
  0
VISUALSTYLE
  5
2F
102
{ACAD_REACTORS
330
29
102
}
330
29
100
AcDbVisualStyle
  2
2dWireframe
 70
     4
177
     3
291
     0
 70
    58
 90
        0
176
     1
 90
        2
176
     1
 90
        0
176
     1
 90
        0
176
     1
 40
0.6
176
     1
 40
30.0
176
     1
 62
     7
420
 16777215
176
     1
 90
        1
176
     1
 90
        4
176
     1
 62
     7
176
     1
 62
   257
176
     1
 90
        1
176
     1
 90
        1
176
     1
 40
1.0
176
     1
 90
        0
176
     1
 62
   257
176
     1
 40
1.0
176
     1
 90
        1
176
     1
 90
        6
176
     1
 90
        2
176
     1
 62
     7
176
     1
 90
        5
176
     1
 90
        0
176
     1
 90
        0
176
     1
290
     0
176
     1
 90
        1
176
     1
 40
0.0
176
     1
 90
        0
176
     1
290
     1
176
     1
290
     1
176
     1
290
     0
176
     1
290
     0
176
     1
290
     0
176
     1
290
     0
176
     1
290
     0
176
     1
290
     0
176
     1
290
     0
176
     1
 90
       50
176
     1
 40
0.0
176
     1
 40
1.0
176
     1
 90
        0
176
     1
 62
    18
420
        0
176
     1
 90
       50
176
     1
 90
        3
176
     1
 62
     5
420
      255
176
     1
290
     0
176
     1
 90
       50
176
     1
 90
       50
176
     1
 90
       50
176
     1
290
     0
176
     1
 90
       50
176
     1
 62
   256
176
     0
 40
1.0
176
     0
 90
        2
176
     1
  1
strokes_ogs.tif
176
     1
290
     0
176
     1
 40
1.0
176
     1
 40
1.0
176
     1
  0
VISUALSTYLE
  5
2E
102
{ACAD_REACTORS
330
29
102
}
330
29
100
AcDbVisualStyle
  2
Basic
 70
     7
177
     3
291
     1
 70
    58
 90
        1
176
     1
 90
        0
176
     1
 90
        1
176
     1
 90
        0
176
     1
 40
0.6
176
     1
 40
30.0
176
     1
 62
     7
420
 16777215
176
     1
 90
        0
176
     1
 90
        4
176
     1
 62
     7
176
     1
 62
   257
176
     1
 90
        1
176
     1
 90
        1
176
     1
 40
1.0
176
     1
 90
        8
176
     1
 62
     7
176
     1
 40
1.0
176
     1
 90
        1
176
     1
 90
        6
176
     1
 90
        2
176
     1
 62
     7
176
     1
 90
        5
176
     1
 90
        0
176
     1
 90
        0
176
     1
290
     0
176
     1
 90
        1
176
     1
 40
0.0
176
     1
 90
        0
176
     1
290
     0
176
     1
290
     1
176
     1
290
     1
176
     1
290
     0
176
     1
290
     0
176
     1
290
     0
176
     1
290
     0
176
     1
290
     0
176
     1
290
     0
176
     1
 90
       50
176
     1
 40
0.0
176
     1
 40
1.0
176
     1
 90
        0
176
     1
 62
    18
420
        0
176
     1
 90
       50
176
     1
 90
        3
176
     1
 62
     5
420
      255
176
     1
290
     0
176
     1
 90
       50
176
     1
 90
       50
176
     1
 90
       50
176
     1
290
     0
176
     1
 90
       50
176
     1
 62
   256
176
     0
 40
1.0
176
     0
 90
        2
176
     1
  1
strokes_ogs.tif
176
     1
290
     0
176
     1
 40
1.0
176
     1
 40
1.0
176
     1
  0
VISUALSTYLE
  5
35
102
{ACAD_REACTORS
330
29
102
}
330
29
100
AcDbVisualStyle
  2
Brighten
 70
    12
177
     3
291
     1
 70
    58
 90
        2
176
     1
 90
        2
176
     1
 90
        0
176
     1
 90
        0
176
     1
 40
0.6
176
     1
 40
30.0
176
     1
 62
     7
420
 16777215
176
     1
 90
        1
176
     1
 90
        4
176
     1
 62
     7
176
     1
 62
   257
176
     1
 90
        1
176
     1
 90
        1
176
     1
 40
1.0
176
     1
 90
        8
176
     1
 62
     7
176
     1
 40
1.0
176
     1
 90
        1
176
     1
 90
        6
176
     1
 90
        2
176
     1
 62
     7
176
     1
 90
        5
176
     1
 90
        0
176
     1
 90
        0
176
     1
290
     0
176
     1
 90
        1
176
     1
 40
50.0
176
     1
 90
        0
176
     1
290
     0
176
     1
290
     1
176
     1
290
     1
176
     1
290
     0
176
     1
290
     0
176
     1
290
     0
176
     1
290
     0
176
     1
290
     0
176
     1
290
     0
176
     1
 90
       50
176
     1
 40
0.0
176
     1
 40
1.0
176
     1
 90
        0
176
     1
 62
    18
420
        0
176
     1
 90
       50
176
     1
 90
        3
176
     1
 62
     5
420
      255
176
     1
290
     0
176
     1
 90
       50
176
     1
 90
       50
176
     1
 90
       50
176
     1
290
     0
176
     1
 90
       50
176
     1
 62
   256
176
     0
 40
1.0
176
     0
 90
        2
176
     1
  1
strokes_ogs.tif
176
     1
290
     0
176
     1
 40
1.0
176
     1
 40
1.0
176
     1
  0
VISUALSTYLE
  5
39
102
{ACAD_REACTORS
330
29
102
}
330
29
100
AcDbVisualStyle
  2
ColorChange
 70
    16
177
     3
291
     1
 70
    58
 90
        2
176
     1
 90
        2
176
     1
 90
        3
176
     1
 90
        0
176
     1
 40
0.6
176
     1
 40
30.0
176
     1
 62
     8
420
  8421504
176
     1
 90
        1
176
     1
 90
        4
176
     1
 62
     7
176
     1
 62
   257
176
     1
 90
        1
176
     1
 90
        1
176
     1
 40
1.0
176
     1
 90
        8
176
     1
 62
     8
420
  8421504
176
     1
 40
1.0
176
     1
 90
        1
176
     1
 90
        6
176
     1
 90
        2
176
     1
 62
     7
176
     1
 90
        5
176
     1
 90
        0
176
     1
 90
        0
176
     1
290
     0
176
     1
 90
        1
176
     1
 40
0.0
176
     1
 90
        0
176
     1
290
     0
176
     1
290
     1
176
     1
290
     1
176
     1
290
     0
176
     1
290
     0
176
     1
290
     0
176
     1
290
     0
176
     1
290
     0
176
     1
290
     0
176
     1
 90
       50
176
     1
 40
0.0
176
     1
 40
1.0
176
     1
 90
        0
176
     1
 62
    18
420
        0
176
     1
 90
       50
176
     1
 90
        3
176
     1
 62
     5
420
      255
176
     1
290
     0
176
     1
 90
       50
176
     1
 90
       50
176
     1
 90
       50
176
     1
290
     0
176
     1
 90
       50
176
     1
 62
   256
176
     0
 40
1.0
176
     0
 90
        2
176
     1
  1
strokes_ogs.tif
176
     1
290
     0
176
     1
 40
1.0
176
     1
 40
1.0
176
     1
  0
VISUALSTYLE
  5
32
102
{ACAD_REACTORS
330
29
102
}
330
29
100
AcDbVisualStyle
  2
Conceptual
 70
     9
177
     3
291
     0
 70
    58
 90
        3
176
     1
 90
        2
176
     1
 90
        0
176
     1
 90
        0
176
     1
 40
0.6
176
     1
 40
30.0
176
     1
 62
     7
420
 16777215
176
     1
 90
        2
176
     1
 90
        2
176
     1
 62
     7
176
     1
 62
   257
176
     1
 90
        1
176
     1
 90
        1
176
     1
 40
179.0
176
     1
 90
        8
176
     1
 62
     7
176
     1
 40
1.0
176
     1
 90
        1
176
     1
 90
        6
176
     1
 90
        2
176
     1
 62
     7
176
     1
 90
        3
176
     1
 90
        0
176
     1
 90
        0
176
     1
290
     0
176
     1
 90
        1
176
     1
 40
0.0
176
     1
 90
        0
176
     1
290
     0
176
     1
290
     1
176
     1
290
     1
176
     1
290
     0
176
     1
290
     0
176
     1
290
     0
176
     1
290
     0
176
     1
290
     0
176
     1
290
     0
176
     1
 90
       50
176
     1
 40
0.0
176
     1
 40
1.0
176
     1
 90
        0
176
     1
 62
    18
420
        0
176
     1
 90
       50
176
     1
 90
        3
176
     1
 62
     5
420
      255
176
     1
290
     0
176
     1
 90
       50
176
     1
 90
       50
176
     1
 90
       50
176
     1
290
     0
176
     1
 90
       50
176
     1
 62
   256
176
     0
 40
1.0
176
     0
 90
        2
176
     1
  1
strokes_ogs.tif
176
     1
290
     0
176
     1
 40
1.0
176
     1
 40
1.0
176
     1
  0
VISUALSTYLE
  5
34
102
{ACAD_REACTORS
330
29
102
}
330
29
100
AcDbVisualStyle
  2
Dim
 70
    11
177
     3
291
     1
 70
    58
 90
        2
176
     1
 90
        2
176
     1
 90
        0
176
     1
 90
        0
176
     1
 40
0.6
176
     1
 40
30.0
176
     1
 62
     7
420
 16777215
176
     1
 90
        1
176
     1
 90
        4
176
     1
 62
     7
176
     1
 62
   257
176
     1
 90
        1
176
     1
 90
        1
176
     1
 40
1.0
176
     1
 90
        8
176
     1
 62
     7
176
     1
 40
1.0
176
     1
 90
        1
176
     1
 90
        6
176
     1
 90
        2
176
     1
 62
     7
176
     1
 90
        5
176
     1
 90
        0
176
     1
 90
        0
176
     1
290
     0
176
     1
 90
        1
176
     1
 40
-50.0
176
     1
 90
        0
176
     1
290
     0
176
     1
290
     1
176
     1
290
     1
176
     1
290
     0
176
     1
290
     0
176
     1
290
     0
176
     1
290
     0
176
     1
290
     0
176
     1
290
     0
176
     1
 90
       50
176
     1
 40
0.0
176
     1
 40
1.0
176
     1
 90
        0
176
     1
 62
    18
420
        0
176
     1
 90
       50
176
     1
 90
        3
176
     1
 62
     5
420
      255
176
     1
290
     0
176
     1
 90
       50
176
     1
 90
       50
176
     1
 90
       50
176
     1
290
     0
176
     1
 90
       50
176
     1
 62
   256
176
     0
 40
1.0
176
     0
 90
        2
176
     1
  1
strokes_ogs.tif
176
     1
290
     0
176
     1
 40
1.0
176
     1
 40
1.0
176
     1
  0
VISUALSTYLE
  5
41
102
{ACAD_REACTORS
330
29
102
}
330
29
100
AcDbVisualStyle
  2
EdgeColorOff
 70
    22
177
     3
291
     1
 70
    58
 90
        2
176
     0
 90
        2
176
     0
 90
        0
176
     0
 90
        0
176
     0
 40
0.6
176
     0
 40
30.0
176
     0
 62
     7
420
 16777215
176
     0
 90
        1
176
     0
 90
        4
176
     0
 62
     7
176
     0
 62
   257
176
     0
 90
        1
176
     0
 90
        1
176
     0
 40
1.0
176
     0
 90
        8
176
     2
 62
     7
176
     0
 40
1.0
176
     0
 90
        1
176
     0
 90
        6
176
     0
 90
        2
176
     0
 62
     7
176
     0
 90
        5
176
     0
 90
        0
176
     0
 90
        0
176
     0
290
     0
176
     0
 90
        1
176
     0
 40
0.0
176
     0
 90
        0
176
     0
290
     0
176
     0
290
     1
176
     0
290
     1
176
     0
290
     0
176
     0
290
     0
176
     0
290
     0
176
     0
290
     0
176
     0
290
     0
176
     0
290
     0
176
     0
 90
       50
176
     0
 40
0.0
176
     0
 40
1.0
176
     0
 90
        0
176
     0
 62
    18
420
        0
176
     0
 90
       50
176
     0
 90
        3
176
     0
 62
     5
420
      255
176
     0
290
     0
176
     0
 90
       50
176
     0
 90
       50
176
     0
 90
       50
176
     0
290
     0
176
     0
 90
       50
176
     0
 62
   256
176
     0
 40
1.0
176
     0
 90
        2
176
     0
  1
strokes_ogs.tif
176
     0
290
     0
176
     0
 40
1.0
176
     0
 40
1.0
176
     0
  0
VISUALSTYLE
  5
38
102
{ACAD_REACTORS
330
29
102
}
330
29
100
AcDbVisualStyle
  2
Facepattern
 70
    15
177
     3
291
     1
 70
    58
 90
        2
176
     1
 90
        2
176
     1
 90
        0
176
     1
 90
        0
176
     1
 40
0.6
176
     1
 40
30.0
176
     1
 62
     7
420
 16777215
176
     1
 90
        1
176
     1
 90
        4
176
     1
 62
     7
176
     1
 62
   257
176
     1
 90
        1
176
     1
 90
        1
176
     1
 40
1.0
176
     1
 90
        8
176
     1
 62
     7
176
     1
 40
1.0
176
     1
 90
        1
176
     1
 90
        6
176
     1
 90
        2
176
     1
 62
     7
176
     1
 90
        5
176
     1
 90
        0
176
     1
 90
        0
176
     1
290
     0
176
     1
 90
        1
176
     1
 40
0.0
176
     1
 90
        0
176
     1
290
     0
176
     1
290
     1
176
     1
290
     1
176
     1
290
     0
176
     1
290
     0
176
     1
290
     0
176
     1
290
     0
176
     1
290
     0
176
     1
290
     0
176
     1
 90
       50
176
     1
 40
0.0
176
     1
 40
1.0
176
     1
 90
        0
176
     1
 62
    18
420
        0
176
     1
 90
       50
176
     1
 90
        3
176
     1
 62
     5
420
      255
176
     1
290
     0
176
     1
 90
       50
176
     1
 90
       50
176
     1
 90
       50
176
     1
290
     0
176
     1
 90
       50
176
     1
 62
   256
176
     0
 40
1.0
176
     0
 90
        2
176
     1
  1
strokes_ogs.tif
176
     1
290
     0
176
     1
 40
1.0
176
     1
 40
1.0
176
     1
  0
VISUALSTYLE
  5
2A
102
{ACAD_REACTORS
330
29
102
}
330
29
100
AcDbVisualStyle
  2
Flat
 70
     0
177
     3
291
     1
 70
    58
 90
        2
176
     1
 90
        1
176
     1
 90
        1
176
     1
 90
        2
176
     1
 40
0.6
176
     1
 40
30.0
176
     1
 62
     7
420
 16777215
176
     1
 90
        0
176
     1
 90
        0
176
     1
 62
     7
176
     1
 62
   257
176
     1
 90
        1
176
     1
 90
        1
176
     1
 40
1.0
176
     1
 90
        8
176
     1
 62
     7
176
     1
 40
1.0
176
     1
 90
        1
176
     1
 90
        6
176
     1
 90
        2
176
     1
 62
     7
176
     1
 90
        5
176
     1
 90
        0
176
     1
 90
        0
176
     1
290
     0
176
     1
 90
       13
176
     1
 40
0.0
176
     1
 90
        0
176
     1
290
     0
176
     1
290
     1
176
     1
290
     1
176
     1
290
     0
176
     1
290
     0
176
     1
290
     0
176
     1
290
     0
176
     1
290
     0
176
     1
290
     0
176
     1
 90
       50
176
     1
 40
0.0
176
     1
 40
1.0
176
     1
 90
        0
176
     1
 62
    18
420
        0
176
     1
 90
       50
176
     1
 90
        3
176
     1
 62
     5
420
      255
176
     1
290
     0
176
     1
 90
       50
176
     1
 90
       50
176
     1
 90
       50
176
     1
290
     0
176
     1
 90
       50
176
     1
 62
   256
176
     0
 40
1.0
176
     0
 90
        2
176
     1
  1
strokes_ogs.tif
176
     1
290
     0
176
     1
 40
1.0
176
     1
 40
1.0
176
     1
  0
VISUALSTYLE
  5
2B
102
{ACAD_REACTORS
330
29
102
}
330
29
100
AcDbVisualStyle
  2
FlatWithEdges
 70
     1
177
     3
291
     1
 70
    58
 90
        2
176
     1
 90
        1
176
     1
 90
        1
176
     1
 90
        2
176
     1
 40
0.6
176
     1
 40
30.0
176
     1
 62
     7
420
 16777215
176
     1
 90
        1
176
     1
 90
        0
176
     1
 62
     7
176
     1
 62
   257
176
     1
 90
        1
176
     1
 90
        1
176
     1
 40
1.0
176
     1
 90
        0
176
     1
 62
   257
176
     1
 40
1.0
176
     1
 90
        1
176
     1
 90
        6
176
     1
 90
        2
176
     1
 62
     7
176
     1
 90
        5
176
     1
 90
        0
176
     1
 90
        0
176
     1
290
     0
176
     1
 90
       13
176
     1
 40
0.0
176
     1
 90
        0
176
     1
290
     0
176
     1
290
     1
176
     1
290
     1
176
     1
290
     0
176
     1
290
     0
176
     1
290
     0
176
     1
290
     0
176
     1
290
     0
176
     1
290
     0
176
     1
 90
       50
176
     1
 40
0.0
176
     1
 40
1.0
176
     1
 90
        0
176
     1
 62
    18
420
        0
176
     1
 90
       50
176
     1
 90
        3
176
     1
 62
     5
420
      255
176
     1
290
     0
176
     1
 90
       50
176
     1
 90
       50
176
     1
 90
       50
176
     1
290
     0
176
     1
 90
       50
176
     1
 62
   256
176
     0
 40
1.0
176
     0
 90
        2
176
     1
  1
strokes_ogs.tif
176
     1
290
     0
176
     1
 40
1.0
176
     1
 40
1.0
176
     1
  0
VISUALSTYLE
  5
2C
102
{ACAD_REACTORS
330
29
102
}
330
29
100
AcDbVisualStyle
  2
Gouraud
 70
     2
177
     3
291
     1
 70
    58
 90
        2
176
     1
 90
        2
176
     1
 90
        1
176
     1
 90
        2
176
     1
 40
0.6
176
     1
 40
30.0
176
     1
 62
     7
420
 16777215
176
     1
 90
        0
176
     1
 90
        0
176
     1
 62
     7
176
     1
 62
   257
176
     1
 90
        1
176
     1
 90
        1
176
     1
 40
1.0
176
     1
 90
        0
176
     1
 62
     7
176
     1
 40
1.0
176
     1
 90
        1
176
     1
 90
        6
176
     1
 90
        2
176
     1
 62
     7
176
     1
 90
        5
176
     1
 90
        0
176
     1
 90
        0
176
     1
290
     0
176
     1
 90
       13
176
     1
 40
0.0
176
     1
 90
        0
176
     1
290
     0
176
     1
290
     1
176
     1
290
     1
176
     1
290
     0
176
     1
290
     0
176
     1
290
     0
176
     1
290
     0
176
     1
290
     0
176
     1
290
     0
176
     1
 90
       50
176
     1
 40
0.0
176
     1
 40
1.0
176
     1
 90
        0
176
     1
 62
    18
420
        0
176
     1
 90
       50
176
     1
 90
        3
176
     1
 62
     5
420
      255
176
     1
290
     0
176
     1
 90
       50
176
     1
 90
       50
176
     1
 90
       50
176
     1
290
     0
176
     1
 90
       50
176
     1
 62
   256
176
     0
 40
1.0
176
     0
 90
        2
176
     1
  1
strokes_ogs.tif
176
     1
290
     0
176
     1
 40
1.0
176
     1
 40
1.0
176
     1
  0
VISUALSTYLE
  5
2D
102
{ACAD_REACTORS
330
29
102
}
330
29
100
AcDbVisualStyle
  2
GouraudWithEdges
 70
     3
177
     3
291
     1
 70
    58
 90
        2
176
     1
 90
        2
176
     1
 90
        1
176
     1
 90
        2
176
     1
 40
0.6
176
     1
 40
30.0
176
     1
 62
     7
420
 16777215
176
     1
 90
        1
176
     1
 90
        0
176
     1
 62
     7
176
     1
 62
   257
176
     1
 90
        1
176
     1
 90
        1
176
     1
 40
1.0
176
     1
 90
        0
176
     1
 62
   257
176
     1
 40
1.0
176
     1
 90
        1
176
     1
 90
        6
176
     1
 90
        2
176
     1
 62
     7
176
     1
 90
        5
176
     1
 90
        0
176
     1
 90
        0
176
     1
290
     0
176
     1
 90
       13
176
     1
 40
0.0
176
     1
 90
        0
176
     1
290
     0
176
     1
290
     1
176
     1
290
     1
176
     1
290
     0
176
     1
290
     0
176
     1
290
     0
176
     1
290
     0
176
     1
290
     0
176
     1
290
     0
176
     1
 90
       50
176
     1
 40
0.0
176
     1
 40
1.0
176
     1
 90
        0
176
     1
 62
    18
420
        0
176
     1
 90
       50
176
     1
 90
        3
176
     1
 62
     5
420
      255
176
     1
290
     0
176
     1
 90
       50
176
     1
 90
       50
176
     1
 90
       50
176
     1
290
     0
176
     1
 90
       50
176
     1
 62
   256
176
     0
 40
1.0
176
     0
 90
        2
176
     1
  1
strokes_ogs.tif
176
     1
290
     0
176
     1
 40
1.0
176
     1
 40
1.0
176
     1
  0
VISUALSTYLE
  5
31
102
{ACAD_REACTORS
330
29
102
}
330
29
100
AcDbVisualStyle
  2
Hidden
 70
     6
177
     3
291
     0
 70
    58
 90
        1
176
     1
 90
        2
176
     1
 90
        2
176
     1
 90
        0
176
     1
 40
0.6
176
     1
 40
30.0
176
     1
 62
     7
420
 16777215
176
     1
 90
        2
176
     1
 90
        2
176
     1
 62
     7
176
     1
 62
   257
176
     1
 90
        2
176
     1
 90
        1
176
     1
 40
40.0
176
     1
 90
        0
176
     1
 62
   257
176
     1
 40
1.0
176
     1
 90
        1
176
     1
 90
        6
176
     1
 90
        2
176
     1
 62
     7
176
     1
 90
        3
176
     1
 90
        0
176
     1
 90
        0
176
     1
290
     0
176
     1
 90
        1
176
     1
 40
0.0
176
     1
 90
        0
176
     1
290
     0
176
     1
290
     1
176
     1
290
     1
176
     1
290
     0
176
     1
290
     0
176
     1
290
     0
176
     1
290
     0
176
     1
290
     0
176
     1
290
     0
176
     1
 90
       50
176
     1
 40
0.0
176
     1
 40
1.0
176
     1
 90
        0
176
     1
 62
    18
420
        0
176
     1
 90
       50
176
     1
 90
        3
176
     1
 62
     5
420
      255
176
     1
290
     0
176
     1
 90
       50
176
     1
 90
       50
176
     1
 90
       50
176
     1
290
     0
176
     1
 90
       50
176
     1
 62
   256
176
     0
 40
1.0
176
     0
 90
        2
176
     1
  1
strokes_ogs.tif
176
     1
290
     0
176
     1
 40
1.0
176
     1
 40
1.0
176
     1
  0
VISUALSTYLE
  5
3F
102
{ACAD_REACTORS
330
29
102
}
330
29
100
AcDbVisualStyle
  2
JitterOff
 70
    20
177
     3
291
     1
 70
    58
 90
        2
176
     0
 90
        2
176
     0
 90
        0
176
     0
 90
        0
176
     0
 40
0.6
176
     0
 40
30.0
176
     0
 62
     7
420
 16777215
176
     0
 90
        1
176
     0
 90
        4
176
     0
 62
     7
176
     0
 62
   257
176
     0
 90
        1
176
     0
 90
        1
176
     0
 40
1.0
176
     0
 90
       10
176
     2
 62
     7
176
     0
 40
1.0
176
     0
 90
        1
176
     0
 90
        6
176
     0
 90
        2
176
     0
 62
     7
176
     0
 90
        5
176
     0
 90
        0
176
     0
 90
        0
176
     0
290
     0
176
     0
 90
        1
176
     0
 40
0.0
176
     0
 90
        0
176
     0
290
     0
176
     0
290
     1
176
     0
290
     1
176
     0
290
     0
176
     0
290
     0
176
     0
290
     0
176
     0
290
     0
176
     0
290
     0
176
     0
290
     0
176
     0
 90
       50
176
     0
 40
0.0
176
     0
 40
1.0
176
     0
 90
        0
176
     0
 62
    18
420
        0
176
     0
 90
       50
176
     0
 90
        3
176
     0
 62
     5
420
      255
176
     0
290
     0
176
     0
 90
       50
176
     0
 90
       50
176
     0
 90
       50
176
     0
290
     0
176
     0
 90
       50
176
     0
 62
   256
176
     0
 40
1.0
176
     0
 90
        2
176
     0
  1
strokes_ogs.tif
176
     0
290
     0
176
     0
 40
1.0
176
     0
 40
1.0
176
     0
  0
VISUALSTYLE
  5
37
102
{ACAD_REACTORS
330
29
102
}
330
29
100
AcDbVisualStyle
  2
Linepattern
 70
    14
177
     3
291
     1
 70
    58
 90
        2
176
     1
 90
        2
176
     1
 90
        0
176
     1
 90
        0
176
     1
 40
0.6
176
     1
 40
30.0
176
     1
 62
     7
420
 16777215
176
     1
 90
        1
176
     1
 90
        4
176
     1
 62
     7
176
     1
 62
   257
176
     1
 90
        7
176
     1
 90
        7
176
     1
 40
1.0
176
     1
 90
        8
176
     1
 62
     7
176
     1
 40
1.0
176
     1
 90
        1
176
     1
 90
        6
176
     1
 90
        2
176
     1
 62
     7
176
     1
 90
        5
176
     1
 90
        0
176
     1
 90
        0
176
     1
290
     0
176
     1
 90
        1
176
     1
 40
0.0
176
     1
 90
        0
176
     1
290
     0
176
     1
290
     1
176
     1
290
     1
176
     1
290
     0
176
     1
290
     0
176
     1
290
     0
176
     1
290
     0
176
     1
290
     0
176
     1
290
     0
176
     1
 90
       50
176
     1
 40
0.0
176
     1
 40
1.0
176
     1
 90
        0
176
     1
 62
    18
420
        0
176
     1
 90
       50
176
     1
 90
        3
176
     1
 62
     5
420
      255
176
     1
290
     0
176
     1
 90
       50
176
     1
 90
       50
176
     1
 90
       50
176
     1
290
     0
176
     1
 90
       50
176
     1
 62
   256
176
     0
 40
1.0
176
     0
 90
        2
176
     1
  1
strokes_ogs.tif
176
     1
290
     0
176
     1
 40
1.0
176
     1
 40
1.0
176
     1
  0
VISUALSTYLE
  5
40
102
{ACAD_REACTORS
330
29
102
}
330
29
100
AcDbVisualStyle
  2
OverhangOff
 70
    21
177
     3
291
     1
 70
    58
 90
        2
176
     0
 90
        2
176
     0
 90
        0
176
     0
 90
        0
176
     0
 40
0.6
176
     0
 40
30.0
176
     0
 62
     7
420
 16777215
176
     0
 90
        1
176
     0
 90
        4
176
     0
 62
     7
176
     0
 62
   257
176
     0
 90
        1
176
     0
 90
        1
176
     0
 40
1.0
176
     0
 90
        9
176
     2
 62
     7
176
     0
 40
1.0
176
     0
 90
        1
176
     0
 90
        6
176
     0
 90
        2
176
     0
 62
     7
176
     0
 90
        5
176
     0
 90
        0
176
     0
 90
        0
176
     0
290
     0
176
     0
 90
        1
176
     0
 40
0.0
176
     0
 90
        0
176
     0
290
     0
176
     0
290
     1
176
     0
290
     1
176
     0
290
     0
176
     0
290
     0
176
     0
290
     0
176
     0
290
     0
176
     0
290
     0
176
     0
290
     0
176
     0
 90
       50
176
     0
 40
0.0
176
     0
 40
1.0
176
     0
 90
        0
176
     0
 62
    18
420
        0
176
     0
 90
       50
176
     0
 90
        3
176
     0
 62
     5
420
      255
176
     0
290
     0
176
     0
 90
       50
176
     0
 90
       50
176
     0
 90
       50
176
     0
290
     0
176
     0
 90
       50
176
     0
 62
   256
176
     0
 40
1.0
176
     0
 90
        2
176
     0
  1
strokes_ogs.tif
176
     0
290
     0
176
     0
 40
1.0
176
     0
 40
1.0
176
     0
  0
VISUALSTYLE
  5
33
102
{ACAD_REACTORS
330
29
102
}
330
29
100
AcDbVisualStyle
  2
Realistic
 70
     8
177
     3
291
     0
 70
    58
 90
        2
176
     1
 90
        3
176
     1
 90
        0
176
     1
 90
        2
176
     1
 40
0.6
176
     1
 40
30.0
176
     1
 62
     7
420
 16777215
176
     1
 90
        0
176
     1
 90
        0
176
     1
 62
     7
176
     1
 62
   257
176
     1
 90
        1
176
     1
 90
        1
176
     1
 40
1.0
176
     1
 90
        8
176
     1
 62
   257
176
     1
 40
1.0
176
     1
 90
        1
176
     1
 90
        6
176
     1
 90
        2
176
     1
 62
     7
176
     1
 90
        3
176
     1
 90
        0
176
     1
 90
        0
176
     1
290
     0
176
     1
 90
       13
176
     1
 40
0.0
176
     1
 90
        0
176
     1
290
     0
176
     1
290
     1
176
     1
290
     1
176
     1
290
     0
176
     1
290
     0
176
     1
290
     0
176
     1
290
     0
176
     1
290
     0
176
     1
290
     0
176
     1
 90
       50
176
     1
 40
0.0
176
     1
 40
1.0
176
     1
 90
        0
176
     1
 62
    18
420
        0
176
     1
 90
       50
176
     1
 90
        3
176
     1
 62
     5
420
      255
176
     1
290
     0
176
     1
 90
       50
176
     1
 90
       50
176
     1
 90
       50
176
     1
290
     0
176
     1
 90
       50
176
     1
 62
   256
176
     0
 40
1.0
176
     0
 90
        2
176
     1
  1
strokes_ogs.tif
176
     1
290
     0
176
     1
 40
1.0
176
     1
 40
1.0
176
     1
  0
VISUALSTYLE
  5
3E
102
{ACAD_REACTORS
330
29
102
}
330
29
100
AcDbVisualStyle
  2
Shaded
 70
    27
177
     3
291
     0
 70
    58
 90
        2
176
     1
 90
        2
176
     1
 90
        1
176
     1
 90
        2
176
     1
 40
0.6
176
     1
 40
30.0
176
     1
 62
     7
420
 16777215
176
     1
 90
        0
176
     1
 90
        4
176
     1
 62
     7
176
     1
 62
   257
176
     1
 90
        1
176
     1
 90
        1
176
     1
 40
1.0
176
     1
 90
        8
176
     1
 62
   257
176
     1
 40
1.0
176
     1
 90
        1
176
     1
 90
        6
176
     1
 90
        2
176
     1
 62
     8
420
  7895160
176
     1
 90
        3
176
     1
 90
        0
176
     1
 90
        0
176
     1
290
     0
176
     1
 90
        5
176
     1
 40
0.0
176
     1
 90
        0
176
     1
290
     0
176
     1
290
     1
176
     1
290
     1
176
     1
290
     0
176
     1
290
     0
176
     1
290
     0
176
     1
290
     0
176
     1
290
     0
176
     1
290
     0
176
     1
 90
       50
176
     1
 40
0.0
176
     1
 40
1.0
176
     1
 90
        0
176
     1
 62
    18
420
        0
176
     1
 90
       50
176
     1
 90
        3
176
     1
 62
     5
420
      255
176
     1
290
     0
176
     1
 90
       50
176
     1
 90
       50
176
     1
 90
       50
176
     1
290
     0
176
     1
 90
       50
176
     1
 62
   256
176
     0
 40
1.0
176
     0
 90
        2
176
     1
  1
strokes_ogs.tif
176
     1
290
     0
176
     1
 40
1.0
176
     1
 40
1.0
176
     1
  0
VISUALSTYLE
  5
3D
102
{ACAD_REACTORS
330
29
102
}
330
29
100
AcDbVisualStyle
  2
Shaded with edges
 70
    26
177
     3
291
     0
 70
    58
 90
        2
176
     1
 90
        2
176
     1
 90
        1
176
     1
 90
        2
176
     1
 40
0.6
176
     1
 40
30.0
176
     1
 62
     7
420
 16777215
176
     1
 90
        1
176
     1
 90
       10
176
     1
 62
     7
176
     1
 62
   257
176
     1
 90
        2
176
     1
 90
        1
176
     1
 40
1.0
176
     1
 90
        8
176
     1
 62
   257
176
     1
 40
1.0
176
     1
 90
        1
176
     1
 90
        6
176
     1
 90
        2
176
     1
 62
     7
176
     1
 90
        3
176
     1
 90
        0
176
     1
 90
        0
176
     1
290
     0
176
     1
 90
        5
176
     1
 40
0.0
176
     1
 90
        0
176
     1
290
     0
176
     1
290
     1
176
     1
290
     1
176
     1
290
     0
176
     1
290
     0
176
     1
290
     0
176
     1
290
     0
176
     1
290
     0
176
     1
290
     0
176
     1
 90
       50
176
     1
 40
0.0
176
     1
 40
1.0
176
     1
 90
        0
176
     1
 62
    18
420
        0
176
     1
 90
       50
176
     1
 90
        3
176
     1
 62
     5
420
      255
176
     1
290
     0
176
     1
 90
       50
176
     1
 90
       50
176
     1
 90
       50
176
     1
290
     0
176
     1
 90
       50
176
     1
 62
   256
176
     0
 40
1.0
176
     0
 90
        2
176
     1
  1
strokes_ogs.tif
176
     1
290
     0
176
     1
 40
1.0
176
     1
 40
1.0
176
     1
  0
VISUALSTYLE
  5
3A
102
{ACAD_REACTORS
330
29
102
}
330
29
100
AcDbVisualStyle
  2
Shades of Gray
 70
    23
177
     3
291
     0
 70
    58
 90
        2
176
     1
 90
        2
176
     1
 90
        3
176
     1
 90
        0
176
     1
 40
0.6
176
     1
 40
30.0
176
     1
 62
     7
420
 16777215
176
     1
 90
        2
176
     1
 90
        2
176
     1
 62
     7
176
     1
 62
     7
176
     1
 90
        1
176
     1
 90
        1
176
     1
 40
40.0
176
     1
 90
        8
176
     1
 62
     7
176
     1
 40
1.0
176
     1
 90
        1
176
     1
 90
        6
176
     1
 90
        2
176
     1
 62
     7
176
     1
 90
        3
176
     1
 90
        0
176
     1
 90
        0
176
     1
290
     0
176
     1
 90
        1
176
     1
 40
0.0
176
     1
 90
        0
176
     1
290
     0
176
     1
290
     1
176
     1
290
     1
176
     1
290
     0
176
     1
290
     0
176
     1
290
     0
176
     1
290
     0
176
     1
290
     0
176
     1
290
     0
176
     1
 90
       50
176
     1
 40
0.0
176
     1
 40
1.0
176
     1
 90
        0
176
     1
 62
    18
420
        0
176
     1
 90
       50
176
     1
 90
        3
176
     1
 62
     5
420
      255
176
     1
290
     0
176
     1
 90
       50
176
     1
 90
       50
176
     1
 90
       50
176
     1
290
     0
176
     1
 90
       50
176
     1
 62
   256
176
     0
 40
1.0
176
     0
 90
        2
176
     1
  1
strokes_ogs.tif
176
     1
290
     0
176
     1
 40
1.0
176
     1
 40
1.0
176
     1
  0
VISUALSTYLE
  5
3B
102
{ACAD_REACTORS
330
29
102
}
330
29
100
AcDbVisualStyle
  2
Sketchy
 70
    24
177
     3
291
     0
 70
    58
 90
        1
176
     1
 90
        2
176
     1
 90
        2
176
     1
 90
        0
176
     1
 40
0.6
176
     1
 40
30.0
176
     1
 62
     7
420
 16777215
176
     1
 90
        2
176
     1
 90
        2
176
     1
 62
     7
176
     1
 62
     7
176
     1
 90
        1
176
     1
 90
        1
176
     1
 40
40.0
176
     1
 90
       11
176
     1
 62
     7
176
     1
 40
1.0
176
     1
 90
        1
176
     1
 90
        6
176
     1
 90
        2
176
     1
 62
     7
176
     1
 90
        6
176
     1
 90
        0
176
     1
 90
        0
176
     1
290
     0
176
     1
 90
        1
176
     1
 40
0.0
176
     1
 90
        0
176
     1
290
     0
176
     1
290
     1
176
     1
290
     1
176
     1
290
     0
176
     1
290
     0
176
     1
290
     0
176
     1
290
     0
176
     1
290
     0
176
     1
290
     0
176
     1
 90
       50
176
     1
 40
0.0
176
     1
 40
1.0
176
     1
 90
        0
176
     1
 62
    18
420
        0
176
     1
 90
       50
176
     1
 90
        3
176
     1
 62
     5
420
      255
176
     1
290
     0
176
     1
 90
       50
176
     1
 90
       50
176
     1
 90
       50
176
     1
290
     0
176
     1
 90
       50
176
     1
 62
   256
176
     0
 40
1.0
176
     0
 90
        2
176
     1
  1
strokes_ogs.tif
176
     1
290
     0
176
     1
 40
1.0
176
     1
 40
1.0
176
     1
  0
VISUALSTYLE
  5
36
102
{ACAD_REACTORS
330
29
102
}
330
29
100
AcDbVisualStyle
  2
Thicken
 70
    13
177
     3
291
     1
 70
    58
 90
        2
176
     1
 90
        2
176
     1
 90
        0
176
     1
 90
        0
176
     1
 40
0.6
176
     1
 40
30.0
176
     1
 62
     7
420
 16777215
176
     1
 90
        1
176
     1
 90
        4
176
     1
 62
     7
176
     1
 62
   257
176
     1
 90
        1
176
     1
 90
        1
176
     1
 40
1.0
176
     1
 90
       12
176
     1
 62
     7
176
     1
 40
1.0
176
     1
 90
        1
176
     1
 90
        6
176
     1
 90
        2
176
     1
 62
     7
176
     1
 90
        5
176
     1
 90
        0
176
     1
 90
        0
176
     1
290
     0
176
     1
 90
        1
176
     1
 40
0.0
176
     1
 90
        0
176
     1
290
     0
176
     1
290
     1
176
     1
290
     1
176
     1
290
     0
176
     1
290
     0
176
     1
290
     0
176
     1
290
     0
176
     1
290
     0
176
     1
290
     0
176
     1
 90
       50
176
     1
 40
0.0
176
     1
 40
1.0
176
     1
 90
        0
176
     1
 62
    18
420
        0
176
     1
 90
       50
176
     1
 90
        3
176
     1
 62
     5
420
      255
176
     1
290
     0
176
     1
 90
       50
176
     1
 90
       50
176
     1
 90
       50
176
     1
290
     0
176
     1
 90
       50
176
     1
 62
   256
176
     0
 40
1.0
176
     0
 90
        2
176
     1
  1
strokes_ogs.tif
176
     1
290
     0
176
     1
 40
1.0
176
     1
 40
1.0
176
     1
  0
VISUALSTYLE
  5
30
102
{ACAD_REACTORS
330
29
102
}
330
29
100
AcDbVisualStyle
  2
Wireframe
 70
     5
177
     3
291
     0
 70
    58
 90
        0
176
     1
 90
        2
176
     1
 90
        0
176
     1
 90
        0
176
     1
 40
0.6
176
     1
 40
30.0
176
     1
 62
     7
420
 16777215
176
     1
 90
        1
176
     1
 90
        4
176
     1
 62
     7
176
     1
 62
   257
176
     1
 90
        1
176
     1
 90
        1
176
     1
 40
1.0
176
     1
 90
        0
176
     1
 62
   257
176
     1
 40
1.0
176
     1
 90
        1
176
     1
 90
        6
176
     1
 90
        2
176
     1
 62
     7
176
     1
 90
        3
176
     1
 90
        0
176
     1
 90
        0
176
     1
290
     0
176
     1
 90
        1
176
     1
 40
0.0
176
     1
 90
        0
176
     1
290
     0
176
     1
290
     1
176
     1
290
     1
176
     1
290
     0
176
     1
290
     0
176
     1
290
     0
176
     1
290
     0
176
     1
290
     0
176
     1
290
     0
176
     1
 90
       50
176
     1
 40
0.0
176
     1
 40
1.0
176
     1
 90
        0
176
     1
 62
    18
420
        0
176
     1
 90
       50
176
     1
 90
        3
176
     1
 62
     5
420
      255
176
     1
290
     0
176
     1
 90
       50
176
     1
 90
       50
176
     1
 90
       50
176
     1
290
     0
176
     1
 90
       50
176
     1
 62
   256
176
     0
 40
1.0
176
     0
 90
        2
176
     1
  1
strokes_ogs.tif
176
     1
290
     0
176
     1
 40
1.0
176
     1
 40
1.0
176
     1
  0
VISUALSTYLE
  5
3C
102
{ACAD_REACTORS
330
29
102
}
330
29
100
AcDbVisualStyle
  2
X-Ray
 70
    25
177
     3
291
     0
 70
    58
 90
        2
176
     1
 90
        2
176
     1
 90
        1
176
     1
 90
        1
176
     1
 40
0.5
176
     1
 40
30.0
176
     1
 62
     7
420
 16777215
176
     1
 90
        1
176
     1
 90
        0
176
     1
 62
     7
176
     1
 62
   257
176
     1
 90
        1
176
     1
 90
        1
176
     1
 40
1.0
176
     1
 90
        8
176
     1
 62
     7
176
     1
 40
1.0
176
     1
 90
        1
176
     1
 90
        6
176
     1
 90
        2
176
     1
 62
     7
176
     1
 90
        3
176
     1
 90
        0
176
     1
 90
        0
176
     1
290
     0
176
     1
 90
       13
176
     1
 40
0.0
176
     1
 90
        0
176
     1
290
     0
176
     1
290
     1
176
     1
290
     1
176
     1
290
     0
176
     1
290
     0
176
     1
290
     0
176
     1
290
     0
176
     1
290
     0
176
     1
290
     0
176
     1
 90
       50
176
     1
 40
0.0
176
     1
 40
1.0
176
     1
 90
        0
176
     1
 62
    18
420
        0
176
     1
 90
       50
176
     1
 90
        3
176
     1
 62
     5
420
      255
176
     1
290
     0
176
     1
 90
       50
176
     1
 90
       50
176
     1
 90
       50
176
     1
290
     0
176
     1
 90
       50
176
     1
 62
   256
176
     0
 40
1.0
176
     0
 90
        2
176
     1
  1
strokes_ogs.tif
176
     1
290
     0
176
     1
 40
1.0
176
     1
 40
1.0
176
     1
  0
DICTIONARYVAR
  5
D5
102
{ACAD_REACTORS
330
D0
102
}
330
D0
100
DictionaryVariables
280
     0
  1
1:1
  0
DICTIONARYVAR
  5
D2
102
{ACAD_REACTORS
330
D0
102
}
330
D0
100
DictionaryVariables
280
     0
  1
STANDARD
  0
DICTIONARYVAR
  5
D1
102
{ACAD_REACTORS
330
D0
102
}
330
D0
100
DictionaryVariables
280
     0
  1
STANDARD
  0
DICTIONARYVAR
  5
D3
102
{ACAD_REACTORS
330
D0
102
}
330
D0
100
DictionaryVariables
280
     0
  1
Imperial24
  0
DICTIONARYVAR
  5
D4
102
{ACAD_REACTORS
330
D0
102
}
330
D0
100
DictionaryVariables
280
     0
  1
Imperial24
  0
DICTIONARY
  5
CD
330
6B
100
AcDbDictionary
280
     1
281
     1
  3
ACAD_XREC_ROUNDTRIP
360
4F1
  0
DICTIONARY
  5
1A
330
19
100
AcDbDictionary
280
     1
281
     1
  3
BUMPTILE
360
1C
  3
DIFFUSETILE
360
1B
  3
OPACITYTILE
360
1F
  3
REFLECTIONTILE
360
1E
  3
REFRACTIONTILE
360
20
  3
SPECULARTILE
360
1D
  0
DICTIONARY
  5
12
330
11
100
AcDbDictionary
280
     1
281
     1
  3
BUMPTILE
360
14
  3
DIFFUSETILE
360
13
  3
OPACITYTILE
360
17
  3
REFLECTIONTILE
360
16
  3
REFRACTIONTILE
360
18
  3
SPECULARTILE
360
15
  0
DICTIONARY
  5
22
330
21
100
AcDbDictionary
280
     1
281
     1
  3
BUMPTILE
360
24
  3
DIFFUSETILE
360
23
  3
OPACITYTILE
360
27
  3
REFLECTIONTILE
360
26
  3
REFRACTIONTILE
360
28
  3
SPECULARTILE
360
25
  0
DICTIONARY
  5
CB
330
69
100
AcDbDictionary
280
     1
281
     1
  3
ACAD_XREC_ROUNDTRIP
360
4F0
  0
DICTIONARY
  5
4EE
330
65
100
AcDbDictionary
280
     1
281
     1
  3
ACAD_ROUNDTRIP_2008_TABLESTYLE_CELLSTYLEMAP
360
4EF
  0
XRECORD
  5
4F1
102
{ACAD_REACTORS
330
CD
102
}
330
CD
100
AcDbXrecord
280
     1
102
DISPLAYNAME
  1
Imperial24
102
FLAGS
 90
        0
  0
XRECORD
  5
1C
102
{ACAD_REACTORS
330
1A
102
}
330
1A
100
AcDbXrecord
280
     1
270
     1
271
     1
  0
XRECORD
  5
1B
102
{ACAD_REACTORS
330
1A
102
}
330
1A
100
AcDbXrecord
280
     1
270
     1
271
     1
  0
XRECORD
  5
1F
102
{ACAD_REACTORS
330
1A
102
}
330
1A
100
AcDbXrecord
280
     1
270
     1
271
     1
  0
XRECORD
  5
1E
102
{ACAD_REACTORS
330
1A
102
}
330
1A
100
AcDbXrecord
280
     1
270
     1
271
     1
  0
XRECORD
  5
20
102
{ACAD_REACTORS
330
1A
102
}
330
1A
100
AcDbXrecord
280
     1
270
     1
271
     1
  0
XRECORD
  5
1D
102
{ACAD_REACTORS
330
1A
102
}
330
1A
100
AcDbXrecord
280
     1
270
     1
271
     1
  0
XRECORD
  5
14
102
{ACAD_REACTORS
330
12
102
}
330
12
100
AcDbXrecord
280
     1
270
     1
271
     1
  0
XRECORD
  5
13
102
{ACAD_REACTORS
330
12
102
}
330
12
100
AcDbXrecord
280
     1
270
     1
271
     1
  0
XRECORD
  5
17
102
{ACAD_REACTORS
330
12
102
}
330
12
100
AcDbXrecord
280
     1
270
     1
271
     1
  0
XRECORD
  5
16
102
{ACAD_REACTORS
330
12
102
}
330
12
100
AcDbXrecord
280
     1
270
     1
271
     1
  0
XRECORD
  5
18
102
{ACAD_REACTORS
330
12
102
}
330
12
100
AcDbXrecord
280
     1
270
     1
271
     1
  0
XRECORD
  5
15
102
{ACAD_REACTORS
330
12
102
}
330
12
100
AcDbXrecord
280
     1
270
     1
271
     1
  0
XRECORD
  5
24
102
{ACAD_REACTORS
330
22
102
}
330
22
100
AcDbXrecord
280
     1
270
     1
271
     1
  0
XRECORD
  5
23
102
{ACAD_REACTORS
330
22
102
}
330
22
100
AcDbXrecord
280
     1
270
     1
271
     1
  0
XRECORD
  5
27
102
{ACAD_REACTORS
330
22
102
}
330
22
100
AcDbXrecord
280
     1
270
     1
271
     1
  0
XRECORD
  5
26
102
{ACAD_REACTORS
330
22
102
}
330
22
100
AcDbXrecord
280
     1
270
     1
271
     1
  0
XRECORD
  5
28
102
{ACAD_REACTORS
330
22
102
}
330
22
100
AcDbXrecord
280
     1
270
     1
271
     1
  0
XRECORD
  5
25
102
{ACAD_REACTORS
330
22
102
}
330
22
100
AcDbXrecord
280
     1
270
     1
271
     1
  0
XRECORD
  5
4F0
102
{ACAD_REACTORS
330
CB
102
}
330
CB
100
AcDbXrecord
280
     1
102
DISPLAYNAME
  1
Imperial24
102
FLAGS
 90
        0
  0
CELLSTYLEMAP
  5
4EF
102
{ACAD_REACTORS
330
4EE
102
}
330
4EE
100
AcDbCellStyleMap
 90
        3
300
CELLSTYLE
  1
TABLEFORMAT_BEGIN
 90
        5
170
     1
 91
        0
 92
    32768
 62
   257
 93
        1
300
CONTENTFORMAT
  1
CONTENTFORMAT_BEGIN
 90
        0
 91
        0
 92
      512
 93
        0
300

 40
0.0
140
1.0
 94
        5
 62
     0
340
55
144
0.25
309
CONTENTFORMAT_END
171
     0
 94
        0
309
TABLEFORMAT_END
  1
CELLSTYLE_BEGIN
 90
        1
 91
        1
300
_TITLE
309
CELLSTYLE_END
300
CELLSTYLE
  1
TABLEFORMAT_BEGIN
 90
        5
170
     1
 91
        0
 92
        0
 62
   257
 93
        1
300
CONTENTFORMAT
  1
CONTENTFORMAT_BEGIN
 90
        0
 91
        0
 92
      512
 93
        0
300

 40
0.0
140
1.0
 94
        5
 62
     0
340
55
144
0.18
309
CONTENTFORMAT_END
171
     0
 94
        0
309
TABLEFORMAT_END
  1
CELLSTYLE_BEGIN
 90
        2
 91
        1
300
_HEADER
309
CELLSTYLE_END
300
CELLSTYLE
  1
TABLEFORMAT_BEGIN
 90
        5
170
     1
 91
        0
 92
        0
 62
   257
 93
        1
300
CONTENTFORMAT
  1
CONTENTFORMAT_BEGIN
 90
        0
 91
        0
 92
      512
 93
        0
300

 40
0.0
140
1.0
 94
        2
 62
     0
340
55
144
0.18
309
CONTENTFORMAT_END
171
     0
 94
        0
309
TABLEFORMAT_END
  1
CELLSTYLE_BEGIN
 90
        3
 91
        2
300
_DATA
309
CELLSTYLE_END
  0
ENDSEC
  0
SECTION
  2
ACDSDATA
 70
     2
 71
     6
  0
ACDSSCHEMA
 90
        0
  1
AcDb_Thumbnail_Schema
  2
AcDbDs::ID
280
    10
 91
        8
  2
Thumbnail_Data
280
    15
 91
        0
101
ACDSRECORD
 95
        0
 90
        1
  2
AcDbDs::TreatedAsObjectData
280
     1
291
     1
101
ACDSRECORD
 95
        0
 90
        2
  2
AcDbDs::Legacy
280
     1
291
     1
101
ACDSRECORD
  1
AcDbDs::ID
 90
        3
  2
AcDs:Indexable
280
     1
291
     1
101
ACDSRECORD
  1
AcDbDs::ID
 90
        4
  2
AcDbDs::HandleAttribute
280
     7
282
     1
  0
ACDSSCHEMA
 90
        1
  1
AcDbDs::TreatedAsObjectDataSchema
  2
AcDbDs::TreatedAsObjectData
280
     1
 91
        0
  0
ACDSSCHEMA
 90
        2
  1
AcDbDs::LegacySchema
  2
AcDbDs::Legacy
280
     1
 91
        0
  0
ACDSSCHEMA
 90
        3
  1
AcDbDs::IndexedPropertySchema
  2
AcDs:Indexable
280
     1
 91
        0
  0
ACDSSCHEMA
 90
        4
  1
AcDbDs::HandleAttributeSchema
  2
AcDbDs::HandleAttribute
280
     7
 91
        1
284
     1
  0
ACDSRECORD
 90
        0
  2
AcDbDs::ID
280
    10
320
73
  2
Thumbnail_Data
280
    15
 94
     2674
310
89504E470D0A1A0A0000000D49484452000001000000008608030000000532A42500000300504C5445000000000000C8C8C80000000000000000000000000000000000000000000000000000330000660000990000CC0000FF0033000033330033660033990033CC0033FF0066000066330066660066990066CC0066FF0099
310
000099330099660099990099CC0099FF00CC0000CC3300CC6600CC9900CCCC00CCFF00FF0000FF3300FF6600FF9900FFCC00FFFF3300003300333300663300993300CC3300FF3333003333333333663333993333CC3333FF3366003366333366663366993366CC3366FF3399003399333399663399993399CC3399FF33CC00
310
33CC3333CC6633CC9933CCCC33CCFF33FF0033FF3333FF6633FF9933FFCC33FFFF6600006600336600666600996600CC6600FF6633006633336633666633996633CC6633FF6666006666336666666666996666CC6666FF6699006699336699666699996699CC6699FF66CC0066CC3366CC6666CC9966CCCC66CCFF66FF0066
310
FF3366FF6666FF9966FFCC66FFFF9900009900339900669900999900CC9900FF9933009933339933669933999933CC9933FF9966009966339966669966999966CC9966FF9999009999339999669999999999CC9999FF99CC0099CC3399CC6699CC9999CCCC99CCFF99FF0099FF3399FF6699FF9999FFCC99FFFFCC0000CC00
310
33CC0066CC0099CC00CCCC00FFCC3300CC3333CC3366CC3399CC33CCCC33FFCC6600CC6633CC6666CC6699CC66CCCC66FFCC9900CC9933CC9966CC9999CC99CCCC99FFCCCC00CCCC33CCCC66CCCC99CCCCCCCCCCFFCCFF00CCFF33CCFF66CCFF99CCFFCCCCFFFFFF0000FF0033FF0066FF0099FF00CCFF00FFFF3300FF3333
310
FF3366FF3399FF33CCFF33FFFF6600FF6633FF6666FF6699FF66CCFF66FFFF9900FF9933FF9966FF9999FF99CCFF99FFFFCC00FFCC33FFCC66FFCC99FFCCCCFFCCFFFFFF00FFFF33FFFF66FFFF99FFFFCCFFFFFF0000000D0D0D1A1A1A2828283535354343435050505D5D5D6B6B6B787878868686939393A1A1A1AEAEAEBB
310
BBBBC9C9C9D6D6D6E4E4E4F1F1F1FFFFFF00000000000000000000000000000000000000000000000000000000000008F1915C000002544944415478DAED9AC16E03310844FDFFFF3BF756E9660D186FDADE0C6F4ED94891C25B8C19EC31FE228DE60200000000000000000000000000000000000000000000000000000000
310
0000000000000000000000000000000000000000000000000000000000000000000000000000000000501B807ED414C08CBC0F032D2F7FAA1980EF806520BC1E3A0178C5AC37828B4523000A09F07EEC02406B05B820F400B089BF0301DD1B40B20B742803CA77C09B40F914D07B050CF7DECDE716005CF723BB1B964F0199
310
1EE05AF2BDCAA0FC0AB8F3C13444AD0028498406009EC540A4E34064FFDEABA5C56620B21989149C98B881C812EEFA6C378B72003EA5C7DC2337C40E1F88A40BFEB95AAA0E007D1C98A445525D00C4F0EB1058E288DBDC9C98980250C82A2966FAED03A25FD6BA4D56F04A8AF10F85589D5B083D410D0072A5EE1DBC0710DF
310
FF6C0B4E27A0614E40A60F7475FF4E80B52D3C7F7AFE03E07E98F391E1BE4DA763332D8A009001605320AC8915C0E919A07597FF25802B350ECF80CF1311DB1B84E9E9F1EE5889DB1FFB983E9983E3E701C6E927082A0ECB94F9DDDC209A43F3421708341EFC70ECFCFC91498D24503218307185DEDFD9E21A170834123714
310
BDD09807E831238A9821774AECB2C00208ABA48C1972F18F782E6C6F5064BB42013334B6B704968140DA0B960190F47B7E1E90FDFAFA5E0703901C005FE20C804D06B8BDE14400F3EF2B19794DBF94C778FE19BAAC095E1B1F6318B5FBF9D90DD19C67FC1FC0D935606B6FE2B5A187257076116C2E00B407504F0321841042
310
082184104208218410420821843AE80BC71E18BB7D46D33E0000000049454E44AE426082BE5E6079A901A0250C850C2320BDDD832DEA849DE36BDEFE575C72952E1412127AB3B51D989249BA4A90F163A2C630D5CAC48051D6AAFC9E08A92D0BC4B60EF50D44C9761E00DC2606BAE96D6A3D0F806D29EAD6800B04A4060053
310
079966D70100CA0B68B66F9E1480660D53AE2060B60BA70034191BB0A693D405D4E68E69F78A5D20DA19009AD838F12C402A16247E0D59050DED7F0880551BDD19C81408A3CD901600E07A850700A04CC0EE9E25FAFFB1C02CFBEAB9753C0D80772383761A16645407FAA973050041F60650331A390CC025017DE74F960427
310
00304C8A0BAAE3B67112003469C947670050B144699F1B00E39532F03166C00800A919661C910A6461C160EB3268E58D0D6062013633242EBCC8A1BFA36FDC129E03200C047B4C245B2240DCAB45FF4C7ADB87006C146288244B7398B01726D76D4E81672C80980472C4C1292B73820266008CD824531888E7132C1BB70110
310
43510600E1B2C21762511F1EF3E0E0482525009A93A4E7F38D296A0094052423C1E073410173DD1ADDC4D1C11B66CB037E688AE73E3BF47F01C8206DC992254B962C595251DE1BCDBDD6AFC1E140CF87E3705AB5A79E26F55B173F4FFDC74170CFAD5987493DF930A9D740408211EA2E7F792320D9381597BFB0119078B47A
310
FAD733024A0C59C1FD4B2240B171EB786BA1C3A4DA6B8D80E2E32F00D2CF8F97EB9F9B0979D4DB249E180B8077EB5FE030A95722F0760078F4DBFDDE84783100FB3142B7F68028AD7F3F3E693B2AE2320894D5BF1F26D5C461525C0681B20044874935DAE494A5F400706DF5E5D9404D8370850FA808C0F49BB4F6F3E5AA21
310
7069CA1C3BC843013817F0E0021952CA00B8F025130F0420F86454709854B782420870D6FEC3E7442B7EDA0B0A01101F3E3D00200C94590138CF8081FAC16152D7BC801200CC0E811B7F78F414064500987DEDC4E418919C00FC012A2D333EEF48E1AB0000000049454E44AE4260824DA11B0075866803009442402FAFF68D
310
0373F281E832D2026B01206D08806E07D087313921280070BCE2280027E9C4F78493006056B1764B00D34FD346013871067D941C3FA74459FCE6EC438B362EEC96B6F3009A25AE42998909913D8FDED33A940C400E40B7CEBC1C9828213A5918339C607020B517960790F98212E62544513C89B3140B0A500120E321518C8A
310
F3815900F6255F7120EF9572006C3BE87AC271007A835AD61B310F80E96DF1AA024B0108B59301196D36004BDE5D4E1826444500F656BBC879D495390B40B7DA947BCF4E88A244284E0C2B99570D80F7355BCA66EBE4E6E1B849E544FB4E0C20EA8ACA7F29E71C00420BE581B602805880BE235C08A0B343674D601E80B0B8
310
C2115E0E40B8A30B01F46FE5E6D414007E57A86810E6C40AA802D0D1DB1A107EEF42EC04AD4440E4BD5C08402C01638748EDDF9E11063995EF55001A6A39D2EFDB1B4A877291242341C06900C9018D05C3DE5F6B5EF05A00A61BBE040019B7B414806673A6A743995CD0CA0DD7BCAA7E700E00CE00286A40E67F9239E107C7
310
BA04B4CEE4454BA01E83292350AB62E2D98B6A4D084B2BFA30E0A4FC2701688188D52039777B2CF725C7EB0154D2F30740F58EFCF1575BFFE283AEFA0078007CCC581F005F0EE0A3FEC7C107C003E001F0DD00567FA5E503E00B093C00BE1CC0E7FDDFD33C001E005F2DFFE2EFF55DF9FA0F853B6A77F36D532E0000000049
310
454E44AE426082
  0
ENDSEC
  0
EOF
